  0
SECTION
  2
HEADER
  9
$ACADVER
  1
AC1015
  9
$ACADMAINTVER
 70
     6
  9
$DWGCODEPAGE
  3
ANSI_932
  9
$INSBASE
 10
0.0
 20
0.0
 30
0.0
  9
$EXTMIN
 10
-210.0
 20
-148.5
 30
0.0
  9
$EXTMAX
 10
210.0
 20
148.5
 30
0.0
  9
$LIMMIN
 10
-210.0
 20
-148.5
  9
$LIMMAX
 10
210.0
 20
148.5
  9
$ORTHOMODE
 70
     0
  9
$REGENMODE
 70
     1
  9
$FILLMODE
 70
     1
  9
$QTEXTMODE
 70
     0
  9
$MIRRTEXT
 70
     1
  9
$LTSCALE
 40
4.0
  9
$ATTMODE
 70
     1
  9
$TEXTSIZE
 40
2.5
  9
$TRACEWID
 40
1.0
  9
$TEXTSTYLE
  7
Standard
  9
$CLAYER
  8
0
  9
$CELTYPE
  6
ByLayer
  9
$CECOLOR
 62
   256
  9
$CELTSCALE
 40
1.0
  9
$DISPSILH
 70
     0
  9
$DIMSCALE
 40
1.0
  9
$DIMASZ
 40
2.0
  9
$DIMEXO
 40
1.0
  9
$DIMDLI
 40
3.75
  9
$DIMRND
 40
1.0
  9
$DIMDLE
 40
0.0
  9
$DIMEXE
 40
1.0
  9
$DIMTP
 40
0.0
  9
$DIMTM
 40
0.0
  9
$DIMTXT
 40
2.5
  9
$DIMCEN
 40
2.5
  9
$DIMTSZ
 40
0.0
  9
$DIMTOL
 70
     0
  9
$DIMLIM
 70
     0
  9
$DIMTIH
 70
     0
  9
$DIMTOH
 70
     0
  9
$DIMSE1
 70
     0
  9
$DIMSE2
 70
     0
  9
$DIMTAD
 70
     1
  9
$DIMZIN
 70
     8
  9
$DIMBLK
  1

  9
$DIMASO
 70
     1
  9
$DIMSHO
 70
     1
  9
$DIMPOST
  1

  9
$DIMAPOST
  1

  9
$DIMALT
 70
     0
  9
$DIMALTD
 70
     3
  9
$DIMALTF
 40
0.03937007874016
  9
$DIMLFAC
 40
1.0
  9
$DIMTOFL
 70
     1
  9
$DIMTVP
 40
0.0
  9
$DIMTIX
 70
     0
  9
$DIMSOXD
 70
     0
  9
$DIMSAH
 70
     1
  9
$DIMBLK1
  1

  9
$DIMBLK2
  1

  9
$DIMSTYLE
  2
ISO-25
  9
$DIMCLRD
 70
     0
  9
$DIMCLRE
 70
     0
  9
$DIMCLRT
 70
     0
  9
$DIMTFAC
 40
1.0
  9
$DIMGAP
 40
0.5
  9
$DIMJUST
 70
     0
  9
$DIMSD1
 70
     0
  9
$DIMSD2
 70
     0
  9
$DIMTOLJ
 70
     0
  9
$DIMTZIN
 70
     8
  9
$DIMALTZ
 70
     0
  9
$DIMALTTZ
 70
     0
  9
$DIMUPT
 70
     1
  9
$DIMDEC
 70
     0
  9
$DIMTDEC
 70
     2
  9
$DIMALTU
 70
     2
  9
$DIMALTTD
 70
     3
  9
$DIMTXSTY
  7
Standard
  9
$DIMAUNIT
 70
     0
  9
$DIMADEC
 70
     0
  9
$DIMALTRND
 40
0.0
  9
$DIMAZIN
 70
     2
  9
$DIMDSEP
 70
    46
  9
$DIMATFIT
 70
     0
  9
$DIMFRAC
 70
     0
  9
$DIMLDRBLK
  1

  9
$DIMLUNIT
 70
     2
  9
$DIMLWD
 70
    -2
  9
$DIMLWE
 70
    -2
  9
$DIMTMOVE
 70
     0
  9
$LUNITS
 70
     2
  9
$LUPREC
 70
     4
  9
$SKETCHINC
 40
1.0
  9
$FILLETRAD
 40
10.0
  9
$AUNITS
 70
     0
  9
$AUPREC
 70
     0
  9
$MENU
  1
.
  9
$ELEVATION
 40
0.0
  9
$PELEVATION
 40
0.0
  9
$THICKNESS
 40
0.0
  9
$LIMCHECK
 70
     0
  9
$CHAMFERA
 40
10.0
  9
$CHAMFERB
 40
10.0
  9
$CHAMFERC
 40
20.0
  9
$CHAMFERD
 40
0.0
  9
$SKPOLY
 70
     0
  9
$TDCREATE
 40
2455281.0
  9
$TDUCREATE
 40
2451562.87528772
  9
$TDUPDATE
 40
2455294.0
  9
$TDUUPDATE
 40
2452026.917654526
  9
$TDINDWG
 40
0.0010008681
  9
$TDUSRTIMER
 40
0.0009680671
  9
$USRTIMER
 70
     1
  9
$ANGBASE
 50
0.0
  9
$ANGDIR
 70
     0
  9
$PDMODE
 70
     0
  9
$PDSIZE
 40
0.0
  9
$PLINEWID
 40
0.0
  9
$SPLFRAME
 70
     0
  9
$SPLINETYPE
 70
     6
  9
$SPLINESEGS
 70
     8
  9
$HANDSEED
  5
56A
  9
$SURFTAB1
 70
     6
  9
$SURFTAB2
 70
     6
  9
$SURFTYPE
 70
     6
  9
$SURFU
 70
     6
  9
$SURFV
 70
     6
  9
$UCSBASE
  2

  9
$UCSNAME
  2

  9
$UCSORG
 10
0.0
 20
0.0
 30
0.0
  9
$UCSXDIR
 10
1.0
 20
0.0
 30
0.0
  9
$UCSYDIR
 10
0.0
 20
1.0
 30
0.0
  9
$UCSORTHOREF
  2

  9
$UCSORTHOVIEW
 70
     0
  9
$UCSORGTOP
 10
0.0
 20
0.0
 30
0.0
  9
$UCSORGBOTTOM
 10
0.0
 20
0.0
 30
0.0
  9
$UCSORGLEFT
 10
0.0
 20
0.0
 30
0.0
  9
$UCSORGRIGHT
 10
0.0
 20
0.0
 30
0.0
  9
$UCSORGFRONT
 10
0.0
 20
0.0
 30
0.0
  9
$UCSORGBACK
 10
0.0
 20
0.0
 30
0.0
  9
$PUCSBASE
  2

  9
$PUCSNAME
  2

  9
$PUCSORG
 10
0.0
 20
0.0
 30
0.0
  9
$PUCSXDIR
 10
1.0
 20
0.0
 30
0.0
  9
$PUCSYDIR
 10
0.0
 20
1.0
 30
0.0
  9
$PUCSORTHOREF
  2

  9
$PUCSORTHOVIEW
 70
     0
  9
$PUCSORGTOP
 10
0.0
 20
0.0
 30
0.0
  9
$PUCSORGBOTTOM
 10
0.0
 20
0.0
 30
0.0
  9
$PUCSORGLEFT
 10
0.0
 20
0.0
 30
0.0
  9
$PUCSORGRIGHT
 10
0.0
 20
0.0
 30
0.0
  9
$PUCSORGFRONT
 10
0.0
 20
0.0
 30
0.0
  9
$PUCSORGBACK
 10
0.0
 20
0.0
 30
0.0
  9
$USERI1
 70
     0
  9
$USERI2
 70
     0
  9
$USERI3
 70
     0
  9
$USERI4
 70
     0
  9
$USERI5
 70
     0
  9
$USERR1
 40
0.0
  9
$USERR2
 40
0.0
  9
$USERR3
 40
0.0
  9
$USERR4
 40
0.0
  9
$USERR5
 40
0.0
  9
$WORLDVIEW
 70
     1
  9
$SHADEDGE
 70
     3
  9
$SHADEDIF
 70
    70
  9
$TILEMODE
 70
     1
  9
$MAXACTVP
 70
    64
  9
$PINSBASE
 10
0.0
 20
0.0
 30
0.0
  9
$PLIMCHECK
 70
     0
  9
$PEXTMIN
 10
-210.0
 20
-148.5
 30
0.0
  9
$PEXTMAX
 10
210.0
 20
148.5
 30
0.0
  9
$PLIMMIN
 10
-210.0
 20
-148.5
  9
$PLIMMAX
 10
210.0
 20
148.5
  9
$UNITMODE
 70
     0
  9
$VISRETAIN
 70
     1
  9
$PLINEGEN
 70
     0
  9
$PSLTSCALE
 70
     1
  9
$TREEDEPTH
 70
  3020
  9
$CMLSTYLE
  2
Standard
  9
$CMLJUST
 70
     0
  9
$CMLSCALE
 40
20.0
  9
$PROXYGRAPHICS
 70
     1
  9
$MEASUREMENT
 70
     1
  9
$CELWEIGHT
370
    -1
  9
$ENDCAPS
280
     0
  9
$JOINSTYLE
280
     0
  9
$LWDISPLAY
290
     0
  9
$INSUNITS
 70
     4
  9
$HYPERLINKBASE
  1

  9
$STYLESHEET
  1

  9
$XEDIT
290
     1
  9
$CEPSNTYPE
380
     0
  9
$PSTYLEMODE
290
     1
  9
$FINGERPRINTGUID
  2
{B6423330-CE35-11D3-AA43-00E0292263AD}
  9
$VERSIONGUID
  2
{EAA0F794-BAE8-4B09-85E0-65C527BE2B8E}
  9
$EXTNAMES
290
     1
  9
$PSVPSCALE
 40
0.0
  9
$OLESTARTUP
290
     0
  0
ENDSEC
  0
SECTION
  2
CLASSES
  0
CLASS
  1
ACDBDICTIONARYWDFLT
  2
AcDbDictionaryWithDefault
  3
ObjectDBX Classes
 90
        0
280
     0
281
     0
  0
CLASS
  1
ACDBPLACEHOLDER
  2
AcDbPlaceHolder
  3
ObjectDBX Classes
 90
        0
280
     0
281
     0
  0
CLASS
  1
LAYOUT
  2
AcDbLayout
  3
ObjectDBX Classes
 90
        0
280
     0
281
     0
  0
ENDSEC
  0
SECTION
  2
TABLES
  0
TABLE
  2
VPORT
  5
8
330
0
100
AcDbSymbolTable
 70
     3
  0
VPORT
  5
30
330
8
100
AcDbSymbolTableRecord
100
AcDbViewportTableRecord
  2
*Active
 70
     0
 10
0.0
 20
0.0
 11
1.0
 21
1.0
 12
259.0560661764706
 22
148.5
 13
0.0
 23
0.0
 14
10.0
 24
10.0
 15
10.0
 25
10.0
 16
0.0
 26
0.0
 36
1.0
 17
0.0
 27
0.0
 37
0.0
 40
297.1173501144164
 41
1.268382352941176
 42
50.0
 43
0.0
 44
0.0
 50
0.0
 51
0.0
 71
     0
 72
   100
 73
     1
 74
     3
 75
     0
 76
     0
 77
     0
 78
     0
281
     0
 65
     1
110
0.0
120
0.0
130
0.0
111
1.0
121
0.0
131
0.0
112
0.0
122
1.0
132
0.0
 79
     0
146
0.0
  0
ENDTAB
  0
TABLE
  2
LTYPE
  5
5
330
0
100
AcDbSymbolTable
 70
    26
  0
LTYPE
  5
14
330
5
100
AcDbSymbolTableRecord
100
AcDbLinetypeTableRecord
  2
ByBlock
 70
     0
  3

 72
    65
 73
     0
 40
0.0
  0
LTYPE
  5
15
330
5
100
AcDbSymbolTableRecord
100
AcDbLinetypeTableRecord
  2
ByLayer
 70
     0
  3

 72
    65
 73
     0
 40
0.0
  0
LTYPE
  5
16
330
5
100
AcDbSymbolTableRecord
100
AcDbLinetypeTableRecord
  2
Continuous
 70
     0
  3
Solid line
 72
    65
 73
     0
 40
0.0
  0
LTYPE
  5
37
330
5
100
AcDbSymbolTableRecord
100
AcDbLinetypeTableRecord
  2
BORDER
 70
     0
  3
 __ __ . __ __ . __ __ . __ __ . __ __ . __ __
 72
    65
 73
     6
 40
1.75
 49
0.5
 74
     0
 49
-0.25
 74
     0
 49
0.5
 74
     0
 49
-0.25
 74
     0
 49
0.0
 74
     0
 49
-0.25
 74
     0
  0
LTYPE
  5
38
330
5
100
AcDbSymbolTableRecord
100
AcDbLinetypeTableRecord
  2
BORDER2
 70
     0
  3
__.__.__.__.__.__.__.__.__.__.__.__.__.__.__
 72
    65
 73
     6
 40
0.875
 49
0.25
 74
     0
 49
-0.125
 74
     0
 49
0.25
 74
     0
 49
-0.125
 74
     0
 49
0.0
 74
     0
 49
-0.125
 74
     0
  0
LTYPE
  5
39
330
5
100
AcDbSymbolTableRecord
100
AcDbLinetypeTableRecord
  2
BORDERX2
 70
     0
  3
____  ____  .  ____  ____  .  ____  ____  .
 72
    65
 73
     6
 40
3.5
 49
1.0
 74
     0
 49
-0.5
 74
     0
 49
1.0
 74
     0
 49
-0.5
 74
     0
 49
0.0
 74
     0
 49
-0.5
 74
     0
  0
LTYPE
  5
3A
330
5
100
AcDbSymbolTableRecord
100
AcDbLinetypeTableRecord
  2
CENTER
 70
     0
  3
____ _ ____ _ ____ _ ____ _ ____ _ ____ _ ____
 72
    65
 73
     4
 40
2.0
 49
1.25
 74
     0
 49
-0.25
 74
     0
 49
0.25
 74
     0
 49
-0.25
 74
     0
  0
LTYPE
  5
3B
330
5
100
AcDbSymbolTableRecord
100
AcDbLinetypeTableRecord
  2
CENTER2
 70
     0
  3
___ _ ___ _ ___ _ ___ _ ___ _ ___ _ ___ _ ___ 
 72
    65
 73
     4
 40
1.125
 49
0.75
 74
     0
 49
-0.125
 74
     0
 49
0.125
 74
     0
 49
-0.125
 74
     0
  0
LTYPE
  5
3C
330
5
100
AcDbSymbolTableRecord
100
AcDbLinetypeTableRecord
  2
CENTERX2
 70
     0
  3
________  __  ________  __  ________  __
 72
    65
 73
     4
 40
4.0
 49
2.5
 74
     0
 49
-0.5
 74
     0
 49
0.5
 74
     0
 49
-0.5
 74
     0
  0
LTYPE
  5
3D
330
5
100
AcDbSymbolTableRecord
100
AcDbLinetypeTableRecord
  2
DASHDOT
 70
     0
  3
__ . __ . __ . __ . __ . __ . __ . __ . __ .
 72
    65
 73
     4
 40
1.0
 49
0.5
 74
     0
 49
-0.25
 74
     0
 49
0.0
 74
     0
 49
-0.25
 74
     0
  0
LTYPE
  5
3E
330
5
100
AcDbSymbolTableRecord
100
AcDbLinetypeTableRecord
  2
DASHDOT2
 70
     0
  3
_._._._._._._._._._._._._._._._._._._._._._._.
 72
    65
 73
     4
 40
0.5
 49
0.25
 74
     0
 49
-0.125
 74
     0
 49
0.0
 74
     0
 49
-0.125
 74
     0
  0
LTYPE
  5
3F
330
5
100
AcDbSymbolTableRecord
100
AcDbLinetypeTableRecord
  2
DASHDOTX2
 70
     0
  3
____  .  ____  .  ____  .  ____  .  ____  .
 72
    65
 73
     4
 40
2.0
 49
1.0
 74
     0
 49
-0.5
 74
     0
 49
0.0
 74
     0
 49
-0.5
 74
     0
  0
LTYPE
  5
40
330
5
100
AcDbSymbolTableRecord
100
AcDbLinetypeTableRecord
  2
DASHED
 70
     0
  3
__ __ __ __ __ __ __ __ __ __ __ __ __ __ __
 72
    65
 73
     2
 40
0.75
 49
0.5
 74
     0
 49
-0.25
 74
     0
  0
LTYPE
  5
41
330
5
100
AcDbSymbolTableRecord
100
AcDbLinetypeTableRecord
  2
DASHED2
 70
     0
  3
_ _ _ _ _ _ _ _ _ _ _ _ _ _ _ _ _ _ _ _ _ _ _
 72
    65
 73
     2
 40
0.375
 49
0.25
 74
     0
 49
-0.125
 74
     0
  0
LTYPE
  5
42
330
5
100
AcDbSymbolTableRecord
100
AcDbLinetypeTableRecord
  2
DASHEDX2
 70
     0
  3
____  ____  ____  ____  ____  ____  ____  ____
 72
    65
 73
     2
 40
1.5
 49
1.0
 74
     0
 49
-0.5
 74
     0
  0
LTYPE
  5
43
330
5
100
AcDbSymbolTableRecord
100
AcDbLinetypeTableRecord
  2
DIVIDE
 70
     0
  3
____ . . ____ . . ____ . . ____ . . ____ . .
 72
    65
 73
     6
 40
1.25
 49
0.5
 74
     0
 49
-0.25
 74
     0
 49
0.0
 74
     0
 49
-0.25
 74
     0
 49
0.0
 74
     0
 49
-0.25
 74
     0
  0
LTYPE
  5
44
330
5
100
AcDbSymbolTableRecord
100
AcDbLinetypeTableRecord
  2
DIVIDE2
 70
     0
  3
__..__..__..__..__..__..__..__..__..__..__..__
 72
    65
 73
     6
 40
0.625
 49
0.25
 74
     0
 49
-0.125
 74
     0
 49
0.0
 74
     0
 49
-0.125
 74
     0
 49
0.0
 74
     0
 49
-0.125
 74
     0
  0
LTYPE
  5
45
330
5
100
AcDbSymbolTableRecord
100
AcDbLinetypeTableRecord
  2
DIVIDEX2
 70
     0
  3
________  .  .  ________  .  .  ________  .  .
 72
    65
 73
     6
 40
2.5
 49
1.0
 74
     0
 49
-0.5
 74
     0
 49
0.0
 74
     0
 49
-0.5
 74
     0
 49
0.0
 74
     0
 49
-0.5
 74
     0
  0
LTYPE
  5
46
330
5
100
AcDbSymbolTableRecord
100
AcDbLinetypeTableRecord
  2
DOT
 70
     0
  3
. . . . . . . . . . . . . . . . . . . . . . .
 72
    65
 73
     2
 40
0.25
 49
0.0
 74
     0
 49
-0.25
 74
     0
  0
LTYPE
  5
47
330
5
100
AcDbSymbolTableRecord
100
AcDbLinetypeTableRecord
  2
DOT2
 70
     0
  3
..............................................
 72
    65
 73
     2
 40
0.125
 49
0.0
 74
     0
 49
-0.125
 74
     0
  0
LTYPE
  5
48
330
5
100
AcDbSymbolTableRecord
100
AcDbLinetypeTableRecord
  2
DOTX2
 70
     0
  3
.  .  .  .  .  .  .  .  .  .  .  .  .  .  .  .
 72
    65
 73
     2
 40
0.5
 49
0.0
 74
     0
 49
-0.5
 74
     0
  0
LTYPE
  5
49
330
5
100
AcDbSymbolTableRecord
100
AcDbLinetypeTableRecord
  2
HIDDEN
 70
     0
  3
__ __ __ __ __ __ __ __ __ __ __ __ __ __ __
 72
    65
 73
     2
 40
0.375
 49
0.25
 74
     0
 49
-0.125
 74
     0
  0
LTYPE
  5
4A
330
5
100
AcDbSymbolTableRecord
100
AcDbLinetypeTableRecord
  2
HIDDEN2
 70
     0
  3
_ _ _ _ _ _ _ _ _ _ _ _ _ _ _ _ _ _ _ _ _ _ _
 72
    65
 73
     2
 40
0.1875
 49
0.125
 74
     0
 49
-0.0625
 74
     0
  0
LTYPE
  5
4B
330
5
100
AcDbSymbolTableRecord
100
AcDbLinetypeTableRecord
  2
HIDDENX2
 70
     0
  3
____ ____ ____ ____ ____ ____ ____ ____ ____
 72
    65
 73
     2
 40
0.75
 49
0.5
 74
     0
 49
-0.25
 74
     0
  0
LTYPE
  5
4C
330
5
100
AcDbSymbolTableRecord
100
AcDbLinetypeTableRecord
  2
PHANTOM
 70
     0
  3
______  __  __  ______  __  __  ______  __
 72
    65
 73
     6
 40
2.5
 49
1.25
 74
     0
 49
-0.25
 74
     0
 49
0.25
 74
     0
 49
-0.25
 74
     0
 49
0.25
 74
     0
 49
-0.25
 74
     0
  0
LTYPE
  5
4D
330
5
100
AcDbSymbolTableRecord
100
AcDbLinetypeTableRecord
  2
PHANTOM2
 70
     0
  3
___ _ _ ___ _ _ ___ _ _ ___ _ _ ___ _ _ ___ _
 72
    65
 73
     6
 40
1.25
 49
0.625
 74
     0
 49
-0.125
 74
     0
 49
0.125
 74
     0
 49
-0.125
 74
     0
 49
0.125
 74
     0
 49
-0.125
 74
     0
  0
LTYPE
  5
4E
330
5
100
AcDbSymbolTableRecord
100
AcDbLinetypeTableRecord
  2
PHANTOMX2
 70
     0
  3
____________    ____    ____    ____________
 72
    65
 73
     6
 40
5.0
 49
2.5
 74
     0
 49
-0.5
 74
     0
 49
0.5
 74
     0
 49
-0.5
 74
     0
 49
0.5
 74
     0
 49
-0.5
 74
     0
  0
LTYPE
  5
4F
330
5
100
AcDbSymbolTableRecord
100
AcDbLinetypeTableRecord
  2
CONTINUOUS2
 70
     0
  3
Solid line
 72
    65
 73
     0
 40
0.0
  0
ENDTAB
  0
TABLE
  2
LAYER
  5
2
330
0
100
AcDbSymbolTable
 70
   514
  0
LAYER
  5
10
330
2
100
AcDbSymbolTableRecord
100
AcDbLayerTableRecord
  2
0
 70
     0
 62
     7
  6
Continuous
370
    -3
390
F
  0
LAYER
  5
50
330
2
100
AcDbSymbolTableRecord
100
AcDbLayerTableRecord
  2
LAYER-001
 70
     0
 62
     7
  6
Continuous
370
    -3
390
F
  0
LAYER
  5
51
330
2
100
AcDbSymbolTableRecord
100
AcDbLayerTableRecord
  2
LAYER-002
 70
     0
 62
     7
  6
Continuous
370
    -3
390
F
  0
LAYER
  5
52
330
2
100
AcDbSymbolTableRecord
100
AcDbLayerTableRecord
  2
LAYER-003
 70
     0
 62
     7
  6
Continuous
370
    -3
390
F
  0
LAYER
  5
53
330
2
100
AcDbSymbolTableRecord
100
AcDbLayerTableRecord
  2
LAYER-004
 70
     0
 62
     7
  6
Continuous
370
    -3
390
F
  0
LAYER
  5
54
330
2
100
AcDbSymbolTableRecord
100
AcDbLayerTableRecord
  2
LAYER-005
 70
     0
 62
     7
  6
Continuous
370
    -3
390
F
  0
LAYER
  5
55
330
2
100
AcDbSymbolTableRecord
100
AcDbLayerTableRecord
  2
LAYER-006
 70
     0
 62
     7
  6
Continuous
370
    -3
390
F
  0
LAYER
  5
56
330
2
100
AcDbSymbolTableRecord
100
AcDbLayerTableRecord
  2
LAYER-007
 70
     0
 62
     7
  6
Continuous
370
    -3
390
F
  0
LAYER
  5
57
330
2
100
AcDbSymbolTableRecord
100
AcDbLayerTableRecord
  2
LAYER-008
 70
     0
 62
     7
  6
Continuous
370
    -3
390
F
  0
LAYER
  5
58
330
2
100
AcDbSymbolTableRecord
100
AcDbLayerTableRecord
  2
LAYER-009
 70
     0
 62
     7
  6
Continuous
370
    -3
390
F
  0
LAYER
  5
59
330
2
100
AcDbSymbolTableRecord
100
AcDbLayerTableRecord
  2
LAYER-010
 70
     0
 62
     7
  6
Continuous
370
    -3
390
F
  0
LAYER
  5
5A
330
2
100
AcDbSymbolTableRecord
100
AcDbLayerTableRecord
  2
LAYER-011
 70
     0
 62
     7
  6
Continuous
370
    -3
390
F
  0
LAYER
  5
5B
330
2
100
AcDbSymbolTableRecord
100
AcDbLayerTableRecord
  2
LAYER-012
 70
     0
 62
     7
  6
Continuous
370
    -3
390
F
  0
LAYER
  5
5C
330
2
100
AcDbSymbolTableRecord
100
AcDbLayerTableRecord
  2
LAYER-013
 70
     0
 62
     7
  6
Continuous
370
    -3
390
F
  0
LAYER
  5
5D
330
2
100
AcDbSymbolTableRecord
100
AcDbLayerTableRecord
  2
LAYER-014
 70
     0
 62
     7
  6
Continuous
370
    -3
390
F
  0
LAYER
  5
5E
330
2
100
AcDbSymbolTableRecord
100
AcDbLayerTableRecord
  2
LAYER-015
 70
     0
 62
    -7
  6
Continuous
370
    -3
390
F
  0
LAYER
  5
5F
330
2
100
AcDbSymbolTableRecord
100
AcDbLayerTableRecord
  2
LAYER-016
 70
     0
 62
     4
  6
Continuous
370
    -3
390
F
  0
LAYER
  5
60
330
2
100
AcDbSymbolTableRecord
100
AcDbLayerTableRecord
  2
LAYER-017
 70
     0
 62
     7
  6
Continuous
370
    -3
390
F
  0
LAYER
  5
61
330
2
100
AcDbSymbolTableRecord
100
AcDbLayerTableRecord
  2
LAYER-018
 70
     0
 62
     2
  6
Continuous
370
    -3
390
F
  0
LAYER
  5
62
330
2
100
AcDbSymbolTableRecord
100
AcDbLayerTableRecord
  2
LAYER-019
 70
     0
 62
     3
  6
Continuous
370
    -3
390
F
  0
LAYER
  5
63
330
2
100
AcDbSymbolTableRecord
100
AcDbLayerTableRecord
  2
LAYER-020
 70
     0
 62
     2
  6
Continuous
370
    -3
390
F
  0
LAYER
  5
64
330
2
100
AcDbSymbolTableRecord
100
AcDbLayerTableRecord
  2
LAYER-021
 70
     0
 62
     7
  6
Continuous
370
    -3
390
F
  0
LAYER
  5
65
330
2
100
AcDbSymbolTableRecord
100
AcDbLayerTableRecord
  2
LAYER-022
 70
     0
 62
     4
  6
Continuous
370
    -3
390
F
  0
LAYER
  5
66
330
2
100
AcDbSymbolTableRecord
100
AcDbLayerTableRecord
  2
LAYER-023
 70
     0
 62
     4
  6
Continuous
370
    -3
390
F
  0
LAYER
  5
67
330
2
100
AcDbSymbolTableRecord
100
AcDbLayerTableRecord
  2
LAYER-024
 70
     0
 62
     7
  6
Continuous
370
    -3
390
F
  0
LAYER
  5
68
330
2
100
AcDbSymbolTableRecord
100
AcDbLayerTableRecord
  2
LAYER-025
 70
     0
 62
     7
  6
Continuous
370
    -3
390
F
  0
LAYER
  5
69
330
2
100
AcDbSymbolTableRecord
100
AcDbLayerTableRecord
  2
LAYER-026
 70
     0
 62
    -7
  6
Continuous
370
    -3
390
F
  0
LAYER
  5
6A
330
2
100
AcDbSymbolTableRecord
100
AcDbLayerTableRecord
  2
LAYER-027
 70
     0
 62
     7
  6
Continuous
370
    -3
390
F
  0
LAYER
  5
6B
330
2
100
AcDbSymbolTableRecord
100
AcDbLayerTableRecord
  2
LAYER-028
 70
     0
 62
     7
  6
Continuous
370
    -3
390
F
  0
LAYER
  5
6C
330
2
100
AcDbSymbolTableRecord
100
AcDbLayerTableRecord
  2
LAYER-029
 70
     0
 62
     7
  6
Continuous
370
    -3
390
F
  0
LAYER
  5
6D
330
2
100
AcDbSymbolTableRecord
100
AcDbLayerTableRecord
  2
LAYER-030
 70
     0
 62
     2
  6
Continuous
370
    -3
390
F
  0
LAYER
  5
6E
330
2
100
AcDbSymbolTableRecord
100
AcDbLayerTableRecord
  2
LAYER-031
 70
     0
 62
     7
  6
Continuous
370
    -3
390
F
  0
LAYER
  5
6F
330
2
100
AcDbSymbolTableRecord
100
AcDbLayerTableRecord
  2
LAYER-032
 70
     0
 62
     2
  6
Continuous
370
    -3
390
F
  0
LAYER
  5
70
330
2
100
AcDbSymbolTableRecord
100
AcDbLayerTableRecord
  2
LAYER-033
 70
     0
 62
     7
  6
Continuous
370
    -3
390
F
  0
LAYER
  5
71
330
2
100
AcDbSymbolTableRecord
100
AcDbLayerTableRecord
  2
LAYER-034
 70
     0
 62
     7
  6
Continuous
370
    -3
390
F
  0
LAYER
  5
72
330
2
100
AcDbSymbolTableRecord
100
AcDbLayerTableRecord
  2
LAYER-035
 70
     0
 62
     3
  6
Continuous
370
    -3
390
F
  0
LAYER
  5
73
330
2
100
AcDbSymbolTableRecord
100
AcDbLayerTableRecord
  2
LAYER-036
 70
     0
 62
     2
  6
Continuous
370
    -3
390
F
  0
LAYER
  5
74
330
2
100
AcDbSymbolTableRecord
100
AcDbLayerTableRecord
  2
LAYER-037
 70
     0
 62
     7
  6
Continuous
370
    -3
390
F
  0
LAYER
  5
75
330
2
100
AcDbSymbolTableRecord
100
AcDbLayerTableRecord
  2
LAYER-038
 70
     0
 62
     7
  6
Continuous
370
    -3
390
F
  0
LAYER
  5
76
330
2
100
AcDbSymbolTableRecord
100
AcDbLayerTableRecord
  2
LAYER-039
 70
     0
 62
     7
  6
Continuous
370
    -3
390
F
  0
LAYER
  5
77
330
2
100
AcDbSymbolTableRecord
100
AcDbLayerTableRecord
  2
LAYER-040
 70
     0
 62
     7
  6
Continuous
370
    -3
390
F
  0
LAYER
  5
78
330
2
100
AcDbSymbolTableRecord
100
AcDbLayerTableRecord
  2
LAYER-041
 70
     0
 62
     7
  6
Continuous
370
    -3
390
F
  0
LAYER
  5
79
330
2
100
AcDbSymbolTableRecord
100
AcDbLayerTableRecord
  2
LAYER-042
 70
     0
 62
     7
  6
Continuous
370
    -3
390
F
  0
LAYER
  5
7A
330
2
100
AcDbSymbolTableRecord
100
AcDbLayerTableRecord
  2
LAYER-043
 70
     0
 62
     7
  6
Continuous
370
    -3
390
F
  0
LAYER
  5
7B
330
2
100
AcDbSymbolTableRecord
100
AcDbLayerTableRecord
  2
LAYER-044
 70
     0
 62
     7
  6
Continuous
370
    -3
390
F
  0
LAYER
  5
7C
330
2
100
AcDbSymbolTableRecord
100
AcDbLayerTableRecord
  2
LAYER-045
 70
     0
 62
     7
  6
Continuous
370
    -3
390
F
  0
LAYER
  5
7D
330
2
100
AcDbSymbolTableRecord
100
AcDbLayerTableRecord
  2
LAYER-046
 70
     0
 62
     7
  6
Continuous
370
    -3
390
F
  0
LAYER
  5
7E
330
2
100
AcDbSymbolTableRecord
100
AcDbLayerTableRecord
  2
LAYER-047
 70
     0
 62
     7
  6
Continuous
370
    -3
390
F
  0
LAYER
  5
7F
330
2
100
AcDbSymbolTableRecord
100
AcDbLayerTableRecord
  2
LAYER-048
 70
     0
 62
     2
  6
Continuous
370
    -3
390
F
  0
LAYER
  5
80
330
2
100
AcDbSymbolTableRecord
100
AcDbLayerTableRecord
  2
LAYER-049
 70
     0
 62
     3
  6
Continuous
370
    -3
390
F
  0
LAYER
  5
81
330
2
100
AcDbSymbolTableRecord
100
AcDbLayerTableRecord
  2
LAYER-050
 70
     0
 62
     7
  6
Continuous
370
    -3
390
F
  0
LAYER
  5
82
330
2
100
AcDbSymbolTableRecord
100
AcDbLayerTableRecord
  2
LAYER-051
 70
     0
 62
     2
  6
Continuous
370
    -3
390
F
  0
LAYER
  5
83
330
2
100
AcDbSymbolTableRecord
100
AcDbLayerTableRecord
  2
LAYER-052
 70
     0
 62
     7
  6
Continuous
370
    -3
390
F
  0
LAYER
  5
84
330
2
100
AcDbSymbolTableRecord
100
AcDbLayerTableRecord
  2
LAYER-053
 70
     0
 62
     7
  6
Continuous
370
    -3
390
F
  0
LAYER
  5
85
330
2
100
AcDbSymbolTableRecord
100
AcDbLayerTableRecord
  2
LAYER-054
 70
     0
 62
     7
  6
Continuous
370
    -3
390
F
  0
LAYER
  5
86
330
2
100
AcDbSymbolTableRecord
100
AcDbLayerTableRecord
  2
LAYER-055
 70
     0
 62
     7
  6
Continuous
370
    -3
390
F
  0
LAYER
  5
87
330
2
100
AcDbSymbolTableRecord
100
AcDbLayerTableRecord
  2
LAYER-056
 70
     0
 62
     7
  6
Continuous
370
    -3
390
F
  0
LAYER
  5
88
330
2
100
AcDbSymbolTableRecord
100
AcDbLayerTableRecord
  2
LAYER-057
 70
     0
 62
     7
  6
Continuous
370
    -3
390
F
  0
LAYER
  5
89
330
2
100
AcDbSymbolTableRecord
100
AcDbLayerTableRecord
  2
LAYER-058
 70
     0
 62
     7
  6
Continuous
370
    -3
390
F
  0
LAYER
  5
8A
330
2
100
AcDbSymbolTableRecord
100
AcDbLayerTableRecord
  2
LAYER-059
 70
     0
 62
     7
  6
Continuous
370
    -3
390
F
  0
LAYER
  5
8B
330
2
100
AcDbSymbolTableRecord
100
AcDbLayerTableRecord
  2
LAYER-060
 70
     0
 62
     7
  6
Continuous
370
    -3
390
F
  0
LAYER
  5
8C
330
2
100
AcDbSymbolTableRecord
100
AcDbLayerTableRecord
  2
LAYER-061
 70
     0
 62
     7
  6
Continuous
370
    -3
390
F
  0
LAYER
  5
8D
330
2
100
AcDbSymbolTableRecord
100
AcDbLayerTableRecord
  2
LAYER-062
 70
     0
 62
     7
  6
Continuous
370
    -3
390
F
  0
LAYER
  5
8E
330
2
100
AcDbSymbolTableRecord
100
AcDbLayerTableRecord
  2
LAYER-063
 70
     0
 62
     7
  6
Continuous
370
    -3
390
F
  0
LAYER
  5
8F
330
2
100
AcDbSymbolTableRecord
100
AcDbLayerTableRecord
  2
LAYER-064
 70
     0
 62
     2
  6
Continuous
370
    -3
390
F
  0
LAYER
  5
90
330
2
100
AcDbSymbolTableRecord
100
AcDbLayerTableRecord
  2
LAYER-065
 70
     0
 62
     7
  6
Continuous
370
    -3
390
F
  0
LAYER
  5
91
330
2
100
AcDbSymbolTableRecord
100
AcDbLayerTableRecord
  2
LAYER-066
 70
     0
 62
     2
  6
Continuous
370
    -3
390
F
  0
LAYER
  5
92
330
2
100
AcDbSymbolTableRecord
100
AcDbLayerTableRecord
  2
LAYER-067
 70
     0
 62
     2
  6
Continuous
370
    -3
390
F
  0
LAYER
  5
93
330
2
100
AcDbSymbolTableRecord
100
AcDbLayerTableRecord
  2
LAYER-068
 70
     0
 62
     7
  6
Continuous
370
    -3
390
F
  0
LAYER
  5
94
330
2
100
AcDbSymbolTableRecord
100
AcDbLayerTableRecord
  2
LAYER-069
 70
     0
 62
     7
  6
Continuous
370
    -3
390
F
  0
LAYER
  5
95
330
2
100
AcDbSymbolTableRecord
100
AcDbLayerTableRecord
  2
LAYER-070
 70
     0
 62
     7
  6
Continuous
370
    -3
390
F
  0
LAYER
  5
96
330
2
100
AcDbSymbolTableRecord
100
AcDbLayerTableRecord
  2
LAYER-071
 70
     0
 62
     7
  6
Continuous
370
    -3
390
F
  0
LAYER
  5
97
330
2
100
AcDbSymbolTableRecord
100
AcDbLayerTableRecord
  2
LAYER-072
 70
     0
 62
     7
  6
Continuous
370
    -3
390
F
  0
LAYER
  5
98
330
2
100
AcDbSymbolTableRecord
100
AcDbLayerTableRecord
  2
LAYER-073
 70
     0
 62
     7
  6
Continuous
370
    -3
390
F
  0
LAYER
  5
99
330
2
100
AcDbSymbolTableRecord
100
AcDbLayerTableRecord
  2
LAYER-074
 70
     0
 62
     7
  6
Continuous
370
    -3
390
F
  0
LAYER
  5
9A
330
2
100
AcDbSymbolTableRecord
100
AcDbLayerTableRecord
  2
LAYER-075
 70
     0
 62
     7
  6
Continuous
370
    -3
390
F
  0
LAYER
  5
9B
330
2
100
AcDbSymbolTableRecord
100
AcDbLayerTableRecord
  2
LAYER-076
 70
     0
 62
     7
  6
Continuous
370
    -3
390
F
  0
LAYER
  5
9C
330
2
100
AcDbSymbolTableRecord
100
AcDbLayerTableRecord
  2
LAYER-077
 70
     0
 62
     7
  6
Continuous
370
    -3
390
F
  0
LAYER
  5
9D
330
2
100
AcDbSymbolTableRecord
100
AcDbLayerTableRecord
  2
LAYER-078
 70
     0
 62
     7
  6
Continuous
370
    -3
390
F
  0
LAYER
  5
9E
330
2
100
AcDbSymbolTableRecord
100
AcDbLayerTableRecord
  2
LAYER-079
 70
     0
 62
     7
  6
Continuous
370
    -3
390
F
  0
LAYER
  5
9F
330
2
100
AcDbSymbolTableRecord
100
AcDbLayerTableRecord
  2
LAYER-080
 70
     0
 62
     2
  6
Continuous
370
    -3
390
F
  0
LAYER
  5
A0
330
2
100
AcDbSymbolTableRecord
100
AcDbLayerTableRecord
  2
LAYER-081
 70
     0
 62
     7
  6
Continuous
370
    -3
390
F
  0
LAYER
  5
A1
330
2
100
AcDbSymbolTableRecord
100
AcDbLayerTableRecord
  2
LAYER-082
 70
     0
 62
     7
  6
Continuous
370
    -3
390
F
  0
LAYER
  5
A2
330
2
100
AcDbSymbolTableRecord
100
AcDbLayerTableRecord
  2
LAYER-083
 70
     0
 62
     7
  6
Continuous
370
    -3
390
F
  0
LAYER
  5
A3
330
2
100
AcDbSymbolTableRecord
100
AcDbLayerTableRecord
  2
LAYER-084
 70
     0
 62
     7
  6
Continuous
370
    -3
390
F
  0
LAYER
  5
A4
330
2
100
AcDbSymbolTableRecord
100
AcDbLayerTableRecord
  2
LAYER-085
 70
     0
 62
     7
  6
Continuous
370
    -3
390
F
  0
LAYER
  5
A5
330
2
100
AcDbSymbolTableRecord
100
AcDbLayerTableRecord
  2
LAYER-086
 70
     0
 62
     7
  6
Continuous
370
    -3
390
F
  0
LAYER
  5
A6
330
2
100
AcDbSymbolTableRecord
100
AcDbLayerTableRecord
  2
LAYER-087
 70
     0
 62
     7
  6
Continuous
370
    -3
390
F
  0
LAYER
  5
A7
330
2
100
AcDbSymbolTableRecord
100
AcDbLayerTableRecord
  2
LAYER-088
 70
     0
 62
     7
  6
Continuous
370
    -3
390
F
  0
LAYER
  5
A8
330
2
100
AcDbSymbolTableRecord
100
AcDbLayerTableRecord
  2
LAYER-089
 70
     0
 62
     7
  6
Continuous
370
    -3
390
F
  0
LAYER
  5
A9
330
2
100
AcDbSymbolTableRecord
100
AcDbLayerTableRecord
  2
LAYER-090
 70
     0
 62
     7
  6
Continuous
370
    -3
390
F
  0
LAYER
  5
AA
330
2
100
AcDbSymbolTableRecord
100
AcDbLayerTableRecord
  2
LAYER-091
 70
     0
 62
     7
  6
Continuous
370
    -3
390
F
  0
LAYER
  5
AB
330
2
100
AcDbSymbolTableRecord
100
AcDbLayerTableRecord
  2
LAYER-092
 70
     0
 62
     7
  6
Continuous
370
    -3
390
F
  0
LAYER
  5
AC
330
2
100
AcDbSymbolTableRecord
100
AcDbLayerTableRecord
  2
LAYER-093
 70
     0
 62
     7
  6
Continuous
370
    -3
390
F
  0
LAYER
  5
AD
330
2
100
AcDbSymbolTableRecord
100
AcDbLayerTableRecord
  2
LAYER-094
 70
     0
 62
     7
  6
Continuous
370
    -3
390
F
  0
LAYER
  5
AE
330
2
100
AcDbSymbolTableRecord
100
AcDbLayerTableRecord
  2
LAYER-095
 70
     0
 62
     7
  6
Continuous
370
    -3
390
F
  0
LAYER
  5
AF
330
2
100
AcDbSymbolTableRecord
100
AcDbLayerTableRecord
  2
LAYER-096
 70
     0
 62
     7
  6
Continuous
370
    -3
390
F
  0
LAYER
  5
B0
330
2
100
AcDbSymbolTableRecord
100
AcDbLayerTableRecord
  2
LAYER-097
 70
     0
 62
     7
  6
Continuous
370
    -3
390
F
  0
LAYER
  5
B1
330
2
100
AcDbSymbolTableRecord
100
AcDbLayerTableRecord
  2
LAYER-098
 70
     0
 62
     7
  6
Continuous
370
    -3
390
F
  0
LAYER
  5
B2
330
2
100
AcDbSymbolTableRecord
100
AcDbLayerTableRecord
  2
LAYER-099
 70
     0
 62
     7
  6
Continuous
370
    -3
390
F
  0
LAYER
  5
B3
330
2
100
AcDbSymbolTableRecord
100
AcDbLayerTableRecord
  2
LAYER-100
 70
     0
 62
     7
  6
Continuous
370
    -3
390
F
  0
LAYER
  5
B4
330
2
100
AcDbSymbolTableRecord
100
AcDbLayerTableRecord
  2
LAYER-101
 70
     0
 62
     7
  6
Continuous
370
    -3
390
F
  0
LAYER
  5
B5
330
2
100
AcDbSymbolTableRecord
100
AcDbLayerTableRecord
  2
LAYER-102
 70
     0
 62
     7
  6
Continuous
370
    -3
390
F
  0
LAYER
  5
B6
330
2
100
AcDbSymbolTableRecord
100
AcDbLayerTableRecord
  2
LAYER-103
 70
     0
 62
     7
  6
Continuous
370
    -3
390
F
  0
LAYER
  5
B7
330
2
100
AcDbSymbolTableRecord
100
AcDbLayerTableRecord
  2
LAYER-104
 70
     0
 62
     7
  6
Continuous
370
    -3
390
F
  0
LAYER
  5
B8
330
2
100
AcDbSymbolTableRecord
100
AcDbLayerTableRecord
  2
LAYER-105
 70
     0
 62
     7
  6
Continuous
370
    -3
390
F
  0
LAYER
  5
B9
330
2
100
AcDbSymbolTableRecord
100
AcDbLayerTableRecord
  2
LAYER-106
 70
     0
 62
     7
  6
Continuous
370
    -3
390
F
  0
LAYER
  5
BA
330
2
100
AcDbSymbolTableRecord
100
AcDbLayerTableRecord
  2
LAYER-107
 70
     0
 62
     7
  6
Continuous
370
    -3
390
F
  0
LAYER
  5
BB
330
2
100
AcDbSymbolTableRecord
100
AcDbLayerTableRecord
  2
LAYER-108
 70
     0
 62
     7
  6
Continuous
370
    -3
390
F
  0
LAYER
  5
BC
330
2
100
AcDbSymbolTableRecord
100
AcDbLayerTableRecord
  2
LAYER-109
 70
     0
 62
     7
  6
Continuous
370
    -3
390
F
  0
LAYER
  5
BD
330
2
100
AcDbSymbolTableRecord
100
AcDbLayerTableRecord
  2
LAYER-110
 70
     0
 62
     7
  6
Continuous
370
    -3
390
F
  0
LAYER
  5
BE
330
2
100
AcDbSymbolTableRecord
100
AcDbLayerTableRecord
  2
LAYER-111
 70
     0
 62
     7
  6
Continuous
370
    -3
390
F
  0
LAYER
  5
BF
330
2
100
AcDbSymbolTableRecord
100
AcDbLayerTableRecord
  2
LAYER-112
 70
     0
 62
     7
  6
Continuous
370
    -3
390
F
  0
LAYER
  5
C0
330
2
100
AcDbSymbolTableRecord
100
AcDbLayerTableRecord
  2
LAYER-113
 70
     0
 62
     7
  6
Continuous
370
    -3
390
F
  0
LAYER
  5
C1
330
2
100
AcDbSymbolTableRecord
100
AcDbLayerTableRecord
  2
LAYER-114
 70
     0
 62
     7
  6
Continuous
370
    -3
390
F
  0
LAYER
  5
C2
330
2
100
AcDbSymbolTableRecord
100
AcDbLayerTableRecord
  2
LAYER-115
 70
     0
 62
     7
  6
Continuous
370
    -3
390
F
  0
LAYER
  5
C3
330
2
100
AcDbSymbolTableRecord
100
AcDbLayerTableRecord
  2
LAYER-116
 70
     0
 62
     7
  6
Continuous
370
    -3
390
F
  0
LAYER
  5
C4
330
2
100
AcDbSymbolTableRecord
100
AcDbLayerTableRecord
  2
LAYER-117
 70
     0
 62
     7
  6
Continuous
370
    -3
390
F
  0
LAYER
  5
C5
330
2
100
AcDbSymbolTableRecord
100
AcDbLayerTableRecord
  2
LAYER-118
 70
     0
 62
     7
  6
Continuous
370
    -3
390
F
  0
LAYER
  5
C6
330
2
100
AcDbSymbolTableRecord
100
AcDbLayerTableRecord
  2
LAYER-119
 70
     0
 62
     7
  6
Continuous
370
    -3
390
F
  0
LAYER
  5
C7
330
2
100
AcDbSymbolTableRecord
100
AcDbLayerTableRecord
  2
LAYER-120
 70
     0
 62
     7
  6
Continuous
370
    -3
390
F
  0
LAYER
  5
C8
330
2
100
AcDbSymbolTableRecord
100
AcDbLayerTableRecord
  2
LAYER-121
 70
     0
 62
     7
  6
Continuous
370
    -3
390
F
  0
LAYER
  5
C9
330
2
100
AcDbSymbolTableRecord
100
AcDbLayerTableRecord
  2
LAYER-122
 70
     0
 62
     7
  6
Continuous
370
    -3
390
F
  0
LAYER
  5
CA
330
2
100
AcDbSymbolTableRecord
100
AcDbLayerTableRecord
  2
LAYER-123
 70
     0
 62
     7
  6
Continuous
370
    -3
390
F
  0
LAYER
  5
CB
330
2
100
AcDbSymbolTableRecord
100
AcDbLayerTableRecord
  2
LAYER-124
 70
     0
 62
     7
  6
Continuous
370
    -3
390
F
  0
LAYER
  5
CC
330
2
100
AcDbSymbolTableRecord
100
AcDbLayerTableRecord
  2
LAYER-125
 70
     0
 62
     7
  6
Continuous
370
    -3
390
F
  0
LAYER
  5
CD
330
2
100
AcDbSymbolTableRecord
100
AcDbLayerTableRecord
  2
LAYER-126
 70
     0
 62
     7
  6
Continuous
370
    -3
390
F
  0
LAYER
  5
CE
330
2
100
AcDbSymbolTableRecord
100
AcDbLayerTableRecord
  2
LAYER-127
 70
     0
 62
     7
  6
Continuous
370
    -3
390
F
  0
LAYER
  5
CF
330
2
100
AcDbSymbolTableRecord
100
AcDbLayerTableRecord
  2
LAYER-128
 70
     0
 62
     7
  6
Continuous
370
    -3
390
F
  0
LAYER
  5
D0
330
2
100
AcDbSymbolTableRecord
100
AcDbLayerTableRecord
  2
LAYER-129
 70
     0
 62
     7
  6
Continuous
370
    -3
390
F
  0
LAYER
  5
D1
330
2
100
AcDbSymbolTableRecord
100
AcDbLayerTableRecord
  2
LAYER-130
 70
     0
 62
     7
  6
Continuous
370
    -3
390
F
  0
LAYER
  5
D2
330
2
100
AcDbSymbolTableRecord
100
AcDbLayerTableRecord
  2
LAYER-131
 70
     0
 62
     7
  6
Continuous
370
    -3
390
F
  0
LAYER
  5
D3
330
2
100
AcDbSymbolTableRecord
100
AcDbLayerTableRecord
  2
LAYER-132
 70
     0
 62
     7
  6
Continuous
370
    -3
390
F
  0
LAYER
  5
D4
330
2
100
AcDbSymbolTableRecord
100
AcDbLayerTableRecord
  2
LAYER-133
 70
     0
 62
     7
  6
Continuous
370
    -3
390
F
  0
LAYER
  5
D5
330
2
100
AcDbSymbolTableRecord
100
AcDbLayerTableRecord
  2
LAYER-134
 70
     0
 62
     7
  6
Continuous
370
    -3
390
F
  0
LAYER
  5
D6
330
2
100
AcDbSymbolTableRecord
100
AcDbLayerTableRecord
  2
LAYER-135
 70
     0
 62
    -4
  6
Continuous
370
    -3
390
F
  0
LAYER
  5
D7
330
2
100
AcDbSymbolTableRecord
100
AcDbLayerTableRecord
  2
LAYER-136
 70
     0
 62
    -3
  6
Continuous
370
    -3
390
F
  0
LAYER
  5
D8
330
2
100
AcDbSymbolTableRecord
100
AcDbLayerTableRecord
  2
LAYER-137
 70
     0
 62
    -1
  6
Continuous
370
    -3
390
F
  0
LAYER
  5
D9
330
2
100
AcDbSymbolTableRecord
100
AcDbLayerTableRecord
  2
LAYER-138
 70
     0
 62
     7
  6
Continuous
370
    -3
390
F
  0
LAYER
  5
DA
330
2
100
AcDbSymbolTableRecord
100
AcDbLayerTableRecord
  2
LAYER-139
 70
     0
 62
     7
  6
Continuous
370
    -3
390
F
  0
LAYER
  5
DB
330
2
100
AcDbSymbolTableRecord
100
AcDbLayerTableRecord
  2
LAYER-140
 70
     0
 62
     7
  6
Continuous
370
    -3
390
F
  0
LAYER
  5
DC
330
2
100
AcDbSymbolTableRecord
100
AcDbLayerTableRecord
  2
LAYER-141
 70
     0
 62
     7
  6
Continuous
370
    -3
390
F
  0
LAYER
  5
DD
330
2
100
AcDbSymbolTableRecord
100
AcDbLayerTableRecord
  2
LAYER-142
 70
     0
 62
     3
  6
Continuous
370
    -3
390
F
  0
LAYER
  5
DE
330
2
100
AcDbSymbolTableRecord
100
AcDbLayerTableRecord
  2
LAYER-143
 70
     0
 62
     7
  6
Continuous
370
    -3
390
F
  0
LAYER
  5
DF
330
2
100
AcDbSymbolTableRecord
100
AcDbLayerTableRecord
  2
LAYER-144
 70
     0
 62
     7
  6
Continuous
370
    -3
390
F
  0
LAYER
  5
E0
330
2
100
AcDbSymbolTableRecord
100
AcDbLayerTableRecord
  2
LAYER-145
 70
     0
 62
     3
  6
Continuous
370
    -3
390
F
  0
LAYER
  5
E1
330
2
100
AcDbSymbolTableRecord
100
AcDbLayerTableRecord
  2
LAYER-146
 70
     0
 62
     7
  6
Continuous
370
    -3
390
F
  0
LAYER
  5
E2
330
2
100
AcDbSymbolTableRecord
100
AcDbLayerTableRecord
  2
LAYER-147
 70
     0
 62
     7
  6
Continuous
370
    -3
390
F
  0
LAYER
  5
E3
330
2
100
AcDbSymbolTableRecord
100
AcDbLayerTableRecord
  2
LAYER-148
 70
     0
 62
     7
  6
Continuous
370
    -3
390
F
  0
LAYER
  5
E4
330
2
100
AcDbSymbolTableRecord
100
AcDbLayerTableRecord
  2
LAYER-149
 70
     0
 62
     7
  6
Continuous
370
    -3
390
F
  0
LAYER
  5
E5
330
2
100
AcDbSymbolTableRecord
100
AcDbLayerTableRecord
  2
LAYER-150
 70
     0
 62
     7
  6
Continuous
370
    -3
390
F
  0
LAYER
  5
E6
330
2
100
AcDbSymbolTableRecord
100
AcDbLayerTableRecord
  2
LAYER-151
 70
     0
 62
     7
  6
Continuous
370
    -3
390
F
  0
LAYER
  5
E7
330
2
100
AcDbSymbolTableRecord
100
AcDbLayerTableRecord
  2
LAYER-152
 70
     0
 62
     7
  6
Continuous
370
    -3
390
F
  0
LAYER
  5
E8
330
2
100
AcDbSymbolTableRecord
100
AcDbLayerTableRecord
  2
LAYER-153
 70
     0
 62
     7
  6
Continuous
370
    -3
390
F
  0
LAYER
  5
E9
330
2
100
AcDbSymbolTableRecord
100
AcDbLayerTableRecord
  2
LAYER-154
 70
     0
 62
     7
  6
Continuous
370
    -3
390
F
  0
LAYER
  5
EA
330
2
100
AcDbSymbolTableRecord
100
AcDbLayerTableRecord
  2
LAYER-155
 70
     0
 62
     7
  6
Continuous
370
    -3
390
F
  0
LAYER
  5
EB
330
2
100
AcDbSymbolTableRecord
100
AcDbLayerTableRecord
  2
LAYER-156
 70
     0
 62
     7
  6
Continuous
370
    -3
390
F
  0
LAYER
  5
EC
330
2
100
AcDbSymbolTableRecord
100
AcDbLayerTableRecord
  2
LAYER-157
 70
     0
 62
     7
  6
Continuous
370
    -3
390
F
  0
LAYER
  5
ED
330
2
100
AcDbSymbolTableRecord
100
AcDbLayerTableRecord
  2
LAYER-158
 70
     0
 62
     7
  6
Continuous
370
    -3
390
F
  0
LAYER
  5
EE
330
2
100
AcDbSymbolTableRecord
100
AcDbLayerTableRecord
  2
LAYER-159
 70
     0
 62
     7
  6
Continuous
370
    -3
390
F
  0
LAYER
  5
EF
330
2
100
AcDbSymbolTableRecord
100
AcDbLayerTableRecord
  2
LAYER-160
 70
     0
 62
     7
  6
Continuous
370
    -3
390
F
  0
LAYER
  5
F0
330
2
100
AcDbSymbolTableRecord
100
AcDbLayerTableRecord
  2
LAYER-161
 70
     0
 62
     7
  6
Continuous
370
    -3
390
F
  0
LAYER
  5
F1
330
2
100
AcDbSymbolTableRecord
100
AcDbLayerTableRecord
  2
LAYER-162
 70
     0
 62
     7
  6
Continuous
370
    -3
390
F
  0
LAYER
  5
F2
330
2
100
AcDbSymbolTableRecord
100
AcDbLayerTableRecord
  2
LAYER-163
 70
     0
 62
     7
  6
Continuous
370
    -3
390
F
  0
LAYER
  5
F3
330
2
100
AcDbSymbolTableRecord
100
AcDbLayerTableRecord
  2
LAYER-164
 70
     0
 62
     7
  6
Continuous
370
    -3
390
F
  0
LAYER
  5
F4
330
2
100
AcDbSymbolTableRecord
100
AcDbLayerTableRecord
  2
LAYER-165
 70
     0
 62
     7
  6
Continuous
370
    -3
390
F
  0
LAYER
  5
F5
330
2
100
AcDbSymbolTableRecord
100
AcDbLayerTableRecord
  2
LAYER-166
 70
     0
 62
     7
  6
Continuous
370
    -3
390
F
  0
LAYER
  5
F6
330
2
100
AcDbSymbolTableRecord
100
AcDbLayerTableRecord
  2
LAYER-167
 70
     0
 62
     7
  6
Continuous
370
    -3
390
F
  0
LAYER
  5
F7
330
2
100
AcDbSymbolTableRecord
100
AcDbLayerTableRecord
  2
LAYER-168
 70
     0
 62
     7
  6
Continuous
370
    -3
390
F
  0
LAYER
  5
F8
330
2
100
AcDbSymbolTableRecord
100
AcDbLayerTableRecord
  2
LAYER-169
 70
     0
 62
     7
  6
Continuous
370
    -3
390
F
  0
LAYER
  5
F9
330
2
100
AcDbSymbolTableRecord
100
AcDbLayerTableRecord
  2
LAYER-170
 70
     0
 62
     7
  6
Continuous
370
    -3
390
F
  0
LAYER
  5
FA
330
2
100
AcDbSymbolTableRecord
100
AcDbLayerTableRecord
  2
LAYER-171
 70
     0
 62
     7
  6
Continuous
370
    -3
390
F
  0
LAYER
  5
FB
330
2
100
AcDbSymbolTableRecord
100
AcDbLayerTableRecord
  2
LAYER-172
 70
     0
 62
     7
  6
Continuous
370
    -3
390
F
  0
LAYER
  5
FC
330
2
100
AcDbSymbolTableRecord
100
AcDbLayerTableRecord
  2
LAYER-173
 70
     0
 62
     7
  6
Continuous
370
    -3
390
F
  0
LAYER
  5
FD
330
2
100
AcDbSymbolTableRecord
100
AcDbLayerTableRecord
  2
LAYER-174
 70
     0
 62
     7
  6
Continuous
370
    -3
390
F
  0
LAYER
  5
FE
330
2
100
AcDbSymbolTableRecord
100
AcDbLayerTableRecord
  2
LAYER-175
 70
     0
 62
     7
  6
Continuous
370
    -3
390
F
  0
LAYER
  5
FF
330
2
100
AcDbSymbolTableRecord
100
AcDbLayerTableRecord
  2
LAYER-176
 70
     0
 62
     7
  6
Continuous
370
    -3
390
F
  0
LAYER
  5
100
330
2
100
AcDbSymbolTableRecord
100
AcDbLayerTableRecord
  2
LAYER-177
 70
     0
 62
     7
  6
Continuous
370
    -3
390
F
  0
LAYER
  5
101
330
2
100
AcDbSymbolTableRecord
100
AcDbLayerTableRecord
  2
LAYER-178
 70
     0
 62
     7
  6
Continuous
370
    -3
390
F
  0
LAYER
  5
102
330
2
100
AcDbSymbolTableRecord
100
AcDbLayerTableRecord
  2
LAYER-179
 70
     0
 62
     7
  6
Continuous
370
    -3
390
F
  0
LAYER
  5
103
330
2
100
AcDbSymbolTableRecord
100
AcDbLayerTableRecord
  2
LAYER-180
 70
     0
 62
     7
  6
Continuous
370
    -3
390
F
  0
LAYER
  5
104
330
2
100
AcDbSymbolTableRecord
100
AcDbLayerTableRecord
  2
LAYER-181
 70
     0
 62
     7
  6
Continuous
370
    -3
390
F
  0
LAYER
  5
105
330
2
100
AcDbSymbolTableRecord
100
AcDbLayerTableRecord
  2
LAYER-182
 70
     0
 62
     7
  6
Continuous
370
    -3
390
F
  0
LAYER
  5
106
330
2
100
AcDbSymbolTableRecord
100
AcDbLayerTableRecord
  2
LAYER-183
 70
     0
 62
     7
  6
Continuous
370
    -3
390
F
  0
LAYER
  5
107
330
2
100
AcDbSymbolTableRecord
100
AcDbLayerTableRecord
  2
LAYER-184
 70
     0
 62
     7
  6
Continuous
370
    -3
390
F
  0
LAYER
  5
108
330
2
100
AcDbSymbolTableRecord
100
AcDbLayerTableRecord
  2
LAYER-185
 70
     0
 62
     7
  6
Continuous
370
    -3
390
F
  0
LAYER
  5
109
330
2
100
AcDbSymbolTableRecord
100
AcDbLayerTableRecord
  2
LAYER-186
 70
     0
 62
     7
  6
Continuous
370
    -3
390
F
  0
LAYER
  5
10A
330
2
100
AcDbSymbolTableRecord
100
AcDbLayerTableRecord
  2
LAYER-187
 70
     0
 62
     7
  6
Continuous
370
    -3
390
F
  0
LAYER
  5
10B
330
2
100
AcDbSymbolTableRecord
100
AcDbLayerTableRecord
  2
LAYER-188
 70
     0
 62
     7
  6
Continuous
370
    -3
390
F
  0
LAYER
  5
10C
330
2
100
AcDbSymbolTableRecord
100
AcDbLayerTableRecord
  2
LAYER-189
 70
     0
 62
     7
  6
Continuous
370
    -3
390
F
  0
LAYER
  5
10D
330
2
100
AcDbSymbolTableRecord
100
AcDbLayerTableRecord
  2
LAYER-190
 70
     0
 62
     7
  6
Continuous
370
    -3
390
F
  0
LAYER
  5
10E
330
2
100
AcDbSymbolTableRecord
100
AcDbLayerTableRecord
  2
LAYER-191
 70
     0
 62
     7
  6
Continuous
370
    -3
390
F
  0
LAYER
  5
10F
330
2
100
AcDbSymbolTableRecord
100
AcDbLayerTableRecord
  2
LAYER-192
 70
     0
 62
     7
  6
Continuous
370
    -3
390
F
  0
LAYER
  5
110
330
2
100
AcDbSymbolTableRecord
100
AcDbLayerTableRecord
  2
LAYER-193
 70
     0
 62
     7
  6
Continuous
370
    -3
390
F
  0
LAYER
  5
111
330
2
100
AcDbSymbolTableRecord
100
AcDbLayerTableRecord
  2
LAYER-194
 70
     0
 62
     2
  6
Continuous
370
    -3
390
F
  0
LAYER
  5
112
330
2
100
AcDbSymbolTableRecord
100
AcDbLayerTableRecord
  2
LAYER-195
 70
     0
 62
     2
  6
Continuous
370
    -3
390
F
  0
LAYER
  5
113
330
2
100
AcDbSymbolTableRecord
100
AcDbLayerTableRecord
  2
LAYER-196
 70
     0
 62
     2
  6
Continuous
370
    -3
390
F
  0
LAYER
  5
114
330
2
100
AcDbSymbolTableRecord
100
AcDbLayerTableRecord
  2
LAYER-197
 70
     0
 62
     7
  6
Continuous
370
    -3
390
F
  0
LAYER
  5
115
330
2
100
AcDbSymbolTableRecord
100
AcDbLayerTableRecord
  2
LAYER-198
 70
     0
 62
     7
  6
Continuous
370
    -3
390
F
  0
LAYER
  5
116
330
2
100
AcDbSymbolTableRecord
100
AcDbLayerTableRecord
  2
LAYER-199
 70
     0
 62
     4
  6
Continuous
370
    -3
390
F
  0
LAYER
  5
117
330
2
100
AcDbSymbolTableRecord
100
AcDbLayerTableRecord
  2
LAYER-200
 70
     0
 62
     1
  6
Continuous
370
    -3
390
F
  0
LAYER
  5
118
330
2
100
AcDbSymbolTableRecord
100
AcDbLayerTableRecord
  2
LAYER-201
 70
     0
 62
     1
  6
Continuous
370
    -3
390
F
  0
LAYER
  5
119
330
2
100
AcDbSymbolTableRecord
100
AcDbLayerTableRecord
  2
LAYER-202
 70
     0
 62
     2
  6
Continuous
370
    -3
390
F
  0
LAYER
  5
11A
330
2
100
AcDbSymbolTableRecord
100
AcDbLayerTableRecord
  2
LAYER-203
 70
     0
 62
     2
  6
Continuous
370
    -3
390
F
  0
LAYER
  5
11B
330
2
100
AcDbSymbolTableRecord
100
AcDbLayerTableRecord
  2
LAYER-204
 70
     0
 62
     7
  6
Continuous
370
    -3
390
F
  0
LAYER
  5
11C
330
2
100
AcDbSymbolTableRecord
100
AcDbLayerTableRecord
  2
LAYER-205
 70
     0
 62
     7
  6
Continuous
370
    -3
390
F
  0
LAYER
  5
11D
330
2
100
AcDbSymbolTableRecord
100
AcDbLayerTableRecord
  2
LAYER-206
 70
     0
 62
     7
  6
Continuous
370
    -3
390
F
  0
LAYER
  5
11E
330
2
100
AcDbSymbolTableRecord
100
AcDbLayerTableRecord
  2
LAYER-207
 70
     0
 62
    -7
  6
Continuous
370
    -3
390
F
  0
LAYER
  5
11F
330
2
100
AcDbSymbolTableRecord
100
AcDbLayerTableRecord
  2
LAYER-208
 70
     0
 62
     2
  6
Continuous
370
    -3
390
F
  0
LAYER
  5
120
330
2
100
AcDbSymbolTableRecord
100
AcDbLayerTableRecord
  2
LAYER-209
 70
     0
 62
     7
  6
Continuous
370
    -3
390
F
  0
LAYER
  5
121
330
2
100
AcDbSymbolTableRecord
100
AcDbLayerTableRecord
  2
LAYER-210
 70
     0
 62
     2
  6
Continuous
370
    -3
390
F
  0
LAYER
  5
122
330
2
100
AcDbSymbolTableRecord
100
AcDbLayerTableRecord
  2
LAYER-211
 70
     0
 62
     7
  6
Continuous
370
    -3
390
F
  0
LAYER
  5
123
330
2
100
AcDbSymbolTableRecord
100
AcDbLayerTableRecord
  2
LAYER-212
 70
     0
 62
     7
  6
Continuous
370
    -3
390
F
  0
LAYER
  5
124
330
2
100
AcDbSymbolTableRecord
100
AcDbLayerTableRecord
  2
LAYER-213
 70
     0
 62
     2
  6
Continuous
370
    -3
390
F
  0
LAYER
  5
125
330
2
100
AcDbSymbolTableRecord
100
AcDbLayerTableRecord
  2
LAYER-214
 70
     0
 62
     7
  6
Continuous
370
    -3
390
F
  0
LAYER
  5
126
330
2
100
AcDbSymbolTableRecord
100
AcDbLayerTableRecord
  2
LAYER-215
 70
     0
 62
     7
  6
Continuous
370
    -3
390
F
  0
LAYER
  5
127
330
2
100
AcDbSymbolTableRecord
100
AcDbLayerTableRecord
  2
LAYER-216
 70
     0
 62
     4
  6
Continuous
370
    -3
390
F
  0
LAYER
  5
128
330
2
100
AcDbSymbolTableRecord
100
AcDbLayerTableRecord
  2
LAYER-217
 70
     0
 62
     7
  6
Continuous
370
    -3
390
F
  0
LAYER
  5
129
330
2
100
AcDbSymbolTableRecord
100
AcDbLayerTableRecord
  2
LAYER-218
 70
     0
 62
     7
  6
Continuous
370
    -3
390
F
  0
LAYER
  5
12A
330
2
100
AcDbSymbolTableRecord
100
AcDbLayerTableRecord
  2
LAYER-219
 70
     0
 62
     7
  6
Continuous
370
    -3
390
F
  0
LAYER
  5
12B
330
2
100
AcDbSymbolTableRecord
100
AcDbLayerTableRecord
  2
LAYER-220
 70
     0
 62
     4
  6
Continuous
370
    -3
390
F
  0
LAYER
  5
12C
330
2
100
AcDbSymbolTableRecord
100
AcDbLayerTableRecord
  2
LAYER-221
 70
     0
 62
    -7
  6
Continuous
290
     0
370
    -3
390
F
  0
LAYER
  5
12D
330
2
100
AcDbSymbolTableRecord
100
AcDbLayerTableRecord
  2
LAYER-222
 70
     0
 62
    -4
  6
Continuous
290
     0
370
    -3
390
F
  0
LAYER
  5
12E
330
2
100
AcDbSymbolTableRecord
100
AcDbLayerTableRecord
  2
LAYER-223
 70
     0
 62
    -1
  6
Continuous
290
     0
370
    -3
390
F
  0
LAYER
  5
12F
330
2
100
AcDbSymbolTableRecord
100
AcDbLayerTableRecord
  2
LAYER-224
 70
     0
 62
    -1
  6
Continuous
290
     0
370
    -3
390
F
  0
LAYER
  5
130
330
2
100
AcDbSymbolTableRecord
100
AcDbLayerTableRecord
  2
LAYER-225
 70
     0
 62
     7
  6
Continuous
370
    -3
390
F
  0
LAYER
  5
131
330
2
100
AcDbSymbolTableRecord
100
AcDbLayerTableRecord
  2
LAYER-226
 70
     0
 62
     2
  6
Continuous
370
    -3
390
F
  0
LAYER
  5
132
330
2
100
AcDbSymbolTableRecord
100
AcDbLayerTableRecord
  2
LAYER-227
 70
     0
 62
     7
  6
Continuous
370
    -3
390
F
  0
LAYER
  5
133
330
2
100
AcDbSymbolTableRecord
100
AcDbLayerTableRecord
  2
LAYER-228
 70
     0
 62
     7
  6
Continuous
370
    -3
390
F
  0
LAYER
  5
134
330
2
100
AcDbSymbolTableRecord
100
AcDbLayerTableRecord
  2
LAYER-229
 70
     0
 62
     7
  6
Continuous
370
    -3
390
F
  0
LAYER
  5
135
330
2
100
AcDbSymbolTableRecord
100
AcDbLayerTableRecord
  2
LAYER-230
 70
     0
 62
     7
  6
Continuous
370
    -3
390
F
  0
LAYER
  5
136
330
2
100
AcDbSymbolTableRecord
100
AcDbLayerTableRecord
  2
LAYER-231
 70
     0
 62
     7
  6
Continuous
370
    -3
390
F
  0
LAYER
  5
137
330
2
100
AcDbSymbolTableRecord
100
AcDbLayerTableRecord
  2
LAYER-232
 70
     0
 62
     7
  6
Continuous
370
    -3
390
F
  0
LAYER
  5
138
330
2
100
AcDbSymbolTableRecord
100
AcDbLayerTableRecord
  2
LAYER-233
 70
     0
 62
     7
  6
Continuous
370
    -3
390
F
  0
LAYER
  5
139
330
2
100
AcDbSymbolTableRecord
100
AcDbLayerTableRecord
  2
LAYER-234
 70
     0
 62
     7
  6
Continuous
370
    -3
390
F
  0
LAYER
  5
13A
330
2
100
AcDbSymbolTableRecord
100
AcDbLayerTableRecord
  2
LAYER-235
 70
     0
 62
     7
  6
Continuous
370
    -3
390
F
  0
LAYER
  5
13B
330
2
100
AcDbSymbolTableRecord
100
AcDbLayerTableRecord
  2
LAYER-236
 70
     0
 62
     7
  6
Continuous
370
    -3
390
F
  0
LAYER
  5
13C
330
2
100
AcDbSymbolTableRecord
100
AcDbLayerTableRecord
  2
LAYER-237
 70
     0
 62
     7
  6
Continuous
370
    -3
390
F
  0
LAYER
  5
13D
330
2
100
AcDbSymbolTableRecord
100
AcDbLayerTableRecord
  2
LAYER-238
 70
     0
 62
     7
  6
Continuous
370
    -3
390
F
  0
LAYER
  5
13E
330
2
100
AcDbSymbolTableRecord
100
AcDbLayerTableRecord
  2
LAYER-239
 70
     0
 62
     7
  6
Continuous
370
    -3
390
F
  0
LAYER
  5
13F
330
2
100
AcDbSymbolTableRecord
100
AcDbLayerTableRecord
  2
LAYER-240
 70
     0
 62
     7
  6
Continuous
370
    -3
390
F
  0
LAYER
  5
140
330
2
100
AcDbSymbolTableRecord
100
AcDbLayerTableRecord
  2
LAYER-241
 70
     0
 62
     7
  6
Continuous
370
    -3
390
F
  0
LAYER
  5
141
330
2
100
AcDbSymbolTableRecord
100
AcDbLayerTableRecord
  2
LAYER-242
 70
     0
 62
     7
  6
Continuous
370
    -3
390
F
  0
LAYER
  5
142
330
2
100
AcDbSymbolTableRecord
100
AcDbLayerTableRecord
  2
LAYER-243
 70
     0
 62
     7
  6
Continuous
370
    -3
390
F
  0
LAYER
  5
143
330
2
100
AcDbSymbolTableRecord
100
AcDbLayerTableRecord
  2
LAYER-244
 70
     0
 62
     7
  6
Continuous
370
    -3
390
F
  0
LAYER
  5
144
330
2
100
AcDbSymbolTableRecord
100
AcDbLayerTableRecord
  2
LAYER-245
 70
     0
 62
     7
  6
Continuous
370
    -3
390
F
  0
LAYER
  5
145
330
2
100
AcDbSymbolTableRecord
100
AcDbLayerTableRecord
  2
LAYER-246
 70
     0
 62
     7
  6
Continuous
370
    -3
390
F
  0
LAYER
  5
146
330
2
100
AcDbSymbolTableRecord
100
AcDbLayerTableRecord
  2
LAYER-247
 70
     0
 62
     7
  6
Continuous
370
    -3
390
F
  0
LAYER
  5
147
330
2
100
AcDbSymbolTableRecord
100
AcDbLayerTableRecord
  2
LAYER-248
 70
     0
 62
     7
  6
Continuous
370
    -3
390
F
  0
LAYER
  5
148
330
2
100
AcDbSymbolTableRecord
100
AcDbLayerTableRecord
  2
LAYER-249
 70
     0
 62
     7
  6
Continuous
370
    -3
390
F
  0
LAYER
  5
149
330
2
100
AcDbSymbolTableRecord
100
AcDbLayerTableRecord
  2
LAYER-250
 70
     0
 62
     7
  6
Continuous
370
    -3
390
F
  0
LAYER
  5
14A
330
2
100
AcDbSymbolTableRecord
100
AcDbLayerTableRecord
  2
LAYER-251
 70
     0
 62
     7
  6
Continuous
370
    -3
390
F
  0
LAYER
  5
14B
330
2
100
AcDbSymbolTableRecord
100
AcDbLayerTableRecord
  2
LAYER-252
 70
     0
 62
     7
  6
Continuous
370
    -3
390
F
  0
LAYER
  5
14C
330
2
100
AcDbSymbolTableRecord
100
AcDbLayerTableRecord
  2
LAYER-253
 70
     0
 62
     7
  6
Continuous
370
    -3
390
F
  0
LAYER
  5
14D
330
2
100
AcDbSymbolTableRecord
100
AcDbLayerTableRecord
  2
LAYER-254
 70
     0
 62
     7
  6
Continuous
370
    -3
390
F
  0
LAYER
  5
14E
330
2
100
AcDbSymbolTableRecord
100
AcDbLayerTableRecord
  2
LAYER-255
 70
     0
 62
     7
  6
Continuous
370
    -3
390
F
  0
LAYER
  5
14F
330
2
100
AcDbSymbolTableRecord
100
AcDbLayerTableRecord
  2
LAYER-256
 70
     0
 62
     7
  6
Continuous
370
    -3
390
F
  0
LAYER
  5
150
330
2
100
AcDbSymbolTableRecord
100
AcDbLayerTableRecord
  2
SUPLINE
 70
     0
 62
    -7
  6
Continuous
290
     0
370
    -3
390
F
  0
LAYER
  5
151
330
2
100
AcDbSymbolTableRecord
100
AcDbLayerTableRecord
  2
FRAMELAYER-001
 70
     0
 62
     7
  6
Continuous
370
    -3
390
F
  0
LAYER
  5
152
330
2
100
AcDbSymbolTableRecord
100
AcDbLayerTableRecord
  2
FRAMELAYER-002
 70
     0
 62
     7
  6
Continuous
370
    -3
390
F
  0
LAYER
  5
153
330
2
100
AcDbSymbolTableRecord
100
AcDbLayerTableRecord
  2
FRAMELAYER-003
 70
     0
 62
     7
  6
Continuous
370
    -3
390
F
  0
LAYER
  5
154
330
2
100
AcDbSymbolTableRecord
100
AcDbLayerTableRecord
  2
FRAMELAYER-004
 70
     0
 62
     7
  6
Continuous
370
    -3
390
F
  0
LAYER
  5
155
330
2
100
AcDbSymbolTableRecord
100
AcDbLayerTableRecord
  2
FRAMELAYER-005
 70
     0
 62
     7
  6
Continuous
370
    -3
390
F
  0
LAYER
  5
156
330
2
100
AcDbSymbolTableRecord
100
AcDbLayerTableRecord
  2
FRAMELAYER-006
 70
     0
 62
     7
  6
Continuous
370
    -3
390
F
  0
LAYER
  5
157
330
2
100
AcDbSymbolTableRecord
100
AcDbLayerTableRecord
  2
FRAMELAYER-007
 70
     0
 62
     7
  6
Continuous
370
    -3
390
F
  0
LAYER
  5
158
330
2
100
AcDbSymbolTableRecord
100
AcDbLayerTableRecord
  2
FRAMELAYER-008
 70
     0
 62
     7
  6
Continuous
370
    -3
390
F
  0
LAYER
  5
159
330
2
100
AcDbSymbolTableRecord
100
AcDbLayerTableRecord
  2
FRAMELAYER-009
 70
     0
 62
     7
  6
Continuous
370
    -3
390
F
  0
LAYER
  5
15A
330
2
100
AcDbSymbolTableRecord
100
AcDbLayerTableRecord
  2
FRAMELAYER-010
 70
     0
 62
     7
  6
Continuous
370
    -3
390
F
  0
LAYER
  5
15B
330
2
100
AcDbSymbolTableRecord
100
AcDbLayerTableRecord
  2
FRAMELAYER-011
 70
     0
 62
     7
  6
Continuous
370
    -3
390
F
  0
LAYER
  5
15C
330
2
100
AcDbSymbolTableRecord
100
AcDbLayerTableRecord
  2
FRAMELAYER-012
 70
     0
 62
     7
  6
Continuous
370
    -3
390
F
  0
LAYER
  5
15D
330
2
100
AcDbSymbolTableRecord
100
AcDbLayerTableRecord
  2
FRAMELAYER-013
 70
     0
 62
     7
  6
Continuous
370
    -3
390
F
  0
LAYER
  5
15E
330
2
100
AcDbSymbolTableRecord
100
AcDbLayerTableRecord
  2
FRAMELAYER-014
 70
     0
 62
     7
  6
Continuous
370
    -3
390
F
  0
LAYER
  5
15F
330
2
100
AcDbSymbolTableRecord
100
AcDbLayerTableRecord
  2
FRAMELAYER-015
 70
     0
 62
    -7
  6
Continuous
370
    -3
390
F
  0
LAYER
  5
160
330
2
100
AcDbSymbolTableRecord
100
AcDbLayerTableRecord
  2
FRAMELAYER-016
 70
     0
 62
     4
  6
Continuous
370
    -3
390
F
  0
LAYER
  5
161
330
2
100
AcDbSymbolTableRecord
100
AcDbLayerTableRecord
  2
FRAMELAYER-017
 70
     0
 62
     7
  6
Continuous
370
    -3
390
F
  0
LAYER
  5
162
330
2
100
AcDbSymbolTableRecord
100
AcDbLayerTableRecord
  2
FRAMELAYER-018
 70
     0
 62
     2
  6
Continuous
370
    -3
390
F
  0
LAYER
  5
163
330
2
100
AcDbSymbolTableRecord
100
AcDbLayerTableRecord
  2
FRAMELAYER-019
 70
     0
 62
     3
  6
Continuous
370
    -3
390
F
  0
LAYER
  5
164
330
2
100
AcDbSymbolTableRecord
100
AcDbLayerTableRecord
  2
FRAMELAYER-020
 70
     0
 62
     2
  6
Continuous
370
    -3
390
F
  0
LAYER
  5
165
330
2
100
AcDbSymbolTableRecord
100
AcDbLayerTableRecord
  2
FRAMELAYER-021
 70
     0
 62
     7
  6
Continuous
370
    -3
390
F
  0
LAYER
  5
166
330
2
100
AcDbSymbolTableRecord
100
AcDbLayerTableRecord
  2
FRAMELAYER-022
 70
     0
 62
     4
  6
Continuous
370
    -3
390
F
  0
LAYER
  5
167
330
2
100
AcDbSymbolTableRecord
100
AcDbLayerTableRecord
  2
FRAMELAYER-023
 70
     0
 62
     4
  6
Continuous
370
    -3
390
F
  0
LAYER
  5
168
330
2
100
AcDbSymbolTableRecord
100
AcDbLayerTableRecord
  2
FRAMELAYER-024
 70
     0
 62
     7
  6
Continuous
370
    -3
390
F
  0
LAYER
  5
169
330
2
100
AcDbSymbolTableRecord
100
AcDbLayerTableRecord
  2
FRAMELAYER-025
 70
     0
 62
     7
  6
Continuous
370
    -3
390
F
  0
LAYER
  5
16A
330
2
100
AcDbSymbolTableRecord
100
AcDbLayerTableRecord
  2
FRAMELAYER-026
 70
     0
 62
    -7
  6
Continuous
370
    -3
390
F
  0
LAYER
  5
16B
330
2
100
AcDbSymbolTableRecord
100
AcDbLayerTableRecord
  2
FRAMELAYER-027
 70
     0
 62
     7
  6
Continuous
370
    -3
390
F
  0
LAYER
  5
16C
330
2
100
AcDbSymbolTableRecord
100
AcDbLayerTableRecord
  2
FRAMELAYER-028
 70
     0
 62
     7
  6
Continuous
370
    -3
390
F
  0
LAYER
  5
16D
330
2
100
AcDbSymbolTableRecord
100
AcDbLayerTableRecord
  2
FRAMELAYER-029
 70
     0
 62
     7
  6
Continuous
370
    -3
390
F
  0
LAYER
  5
16E
330
2
100
AcDbSymbolTableRecord
100
AcDbLayerTableRecord
  2
FRAMELAYER-030
 70
     0
 62
     2
  6
Continuous
370
    -3
390
F
  0
LAYER
  5
16F
330
2
100
AcDbSymbolTableRecord
100
AcDbLayerTableRecord
  2
FRAMELAYER-031
 70
     0
 62
     7
  6
Continuous
370
    -3
390
F
  0
LAYER
  5
170
330
2
100
AcDbSymbolTableRecord
100
AcDbLayerTableRecord
  2
FRAMELAYER-032
 70
     0
 62
     2
  6
Continuous
370
    -3
390
F
  0
LAYER
  5
171
330
2
100
AcDbSymbolTableRecord
100
AcDbLayerTableRecord
  2
FRAMELAYER-033
 70
     0
 62
     7
  6
Continuous
370
    -3
390
F
  0
LAYER
  5
172
330
2
100
AcDbSymbolTableRecord
100
AcDbLayerTableRecord
  2
FRAMELAYER-034
 70
     0
 62
     7
  6
Continuous
370
    -3
390
F
  0
LAYER
  5
173
330
2
100
AcDbSymbolTableRecord
100
AcDbLayerTableRecord
  2
FRAMELAYER-035
 70
     0
 62
     3
  6
Continuous
370
    -3
390
F
  0
LAYER
  5
174
330
2
100
AcDbSymbolTableRecord
100
AcDbLayerTableRecord
  2
FRAMELAYER-036
 70
     0
 62
     2
  6
Continuous
370
    -3
390
F
  0
LAYER
  5
175
330
2
100
AcDbSymbolTableRecord
100
AcDbLayerTableRecord
  2
FRAMELAYER-037
 70
     0
 62
     7
  6
Continuous
370
    -3
390
F
  0
LAYER
  5
176
330
2
100
AcDbSymbolTableRecord
100
AcDbLayerTableRecord
  2
FRAMELAYER-038
 70
     0
 62
     7
  6
Continuous
370
    -3
390
F
  0
LAYER
  5
177
330
2
100
AcDbSymbolTableRecord
100
AcDbLayerTableRecord
  2
FRAMELAYER-039
 70
     0
 62
     7
  6
Continuous
370
    -3
390
F
  0
LAYER
  5
178
330
2
100
AcDbSymbolTableRecord
100
AcDbLayerTableRecord
  2
FRAMELAYER-040
 70
     0
 62
     7
  6
Continuous
370
    -3
390
F
  0
LAYER
  5
179
330
2
100
AcDbSymbolTableRecord
100
AcDbLayerTableRecord
  2
FRAMELAYER-041
 70
     0
 62
     7
  6
Continuous
370
    -3
390
F
  0
LAYER
  5
17A
330
2
100
AcDbSymbolTableRecord
100
AcDbLayerTableRecord
  2
FRAMELAYER-042
 70
     0
 62
     7
  6
Continuous
370
    -3
390
F
  0
LAYER
  5
17B
330
2
100
AcDbSymbolTableRecord
100
AcDbLayerTableRecord
  2
FRAMELAYER-043
 70
     0
 62
     7
  6
Continuous
370
    -3
390
F
  0
LAYER
  5
17C
330
2
100
AcDbSymbolTableRecord
100
AcDbLayerTableRecord
  2
FRAMELAYER-044
 70
     0
 62
     7
  6
Continuous
370
    -3
390
F
  0
LAYER
  5
17D
330
2
100
AcDbSymbolTableRecord
100
AcDbLayerTableRecord
  2
FRAMELAYER-045
 70
     0
 62
     7
  6
Continuous
370
    -3
390
F
  0
LAYER
  5
17E
330
2
100
AcDbSymbolTableRecord
100
AcDbLayerTableRecord
  2
FRAMELAYER-046
 70
     0
 62
     7
  6
Continuous
370
    -3
390
F
  0
LAYER
  5
17F
330
2
100
AcDbSymbolTableRecord
100
AcDbLayerTableRecord
  2
FRAMELAYER-047
 70
     0
 62
     7
  6
Continuous
370
    -3
390
F
  0
LAYER
  5
180
330
2
100
AcDbSymbolTableRecord
100
AcDbLayerTableRecord
  2
FRAMELAYER-048
 70
     0
 62
     2
  6
Continuous
370
    -3
390
F
  0
LAYER
  5
181
330
2
100
AcDbSymbolTableRecord
100
AcDbLayerTableRecord
  2
FRAMELAYER-049
 70
     0
 62
     3
  6
Continuous
370
    -3
390
F
  0
LAYER
  5
182
330
2
100
AcDbSymbolTableRecord
100
AcDbLayerTableRecord
  2
FRAMELAYER-050
 70
     0
 62
     7
  6
Continuous
370
    -3
390
F
  0
LAYER
  5
183
330
2
100
AcDbSymbolTableRecord
100
AcDbLayerTableRecord
  2
FRAMELAYER-051
 70
     0
 62
     2
  6
Continuous
370
    -3
390
F
  0
LAYER
  5
184
330
2
100
AcDbSymbolTableRecord
100
AcDbLayerTableRecord
  2
FRAMELAYER-052
 70
     0
 62
     7
  6
Continuous
370
    -3
390
F
  0
LAYER
  5
185
330
2
100
AcDbSymbolTableRecord
100
AcDbLayerTableRecord
  2
FRAMELAYER-053
 70
     0
 62
     7
  6
Continuous
370
    -3
390
F
  0
LAYER
  5
186
330
2
100
AcDbSymbolTableRecord
100
AcDbLayerTableRecord
  2
FRAMELAYER-054
 70
     0
 62
     7
  6
Continuous
370
    -3
390
F
  0
LAYER
  5
187
330
2
100
AcDbSymbolTableRecord
100
AcDbLayerTableRecord
  2
FRAMELAYER-055
 70
     0
 62
     7
  6
Continuous
370
    -3
390
F
  0
LAYER
  5
188
330
2
100
AcDbSymbolTableRecord
100
AcDbLayerTableRecord
  2
FRAMELAYER-056
 70
     0
 62
     7
  6
Continuous
370
    -3
390
F
  0
LAYER
  5
189
330
2
100
AcDbSymbolTableRecord
100
AcDbLayerTableRecord
  2
FRAMELAYER-057
 70
     0
 62
     7
  6
Continuous
370
    -3
390
F
  0
LAYER
  5
18A
330
2
100
AcDbSymbolTableRecord
100
AcDbLayerTableRecord
  2
FRAMELAYER-058
 70
     0
 62
     7
  6
Continuous
370
    -3
390
F
  0
LAYER
  5
18B
330
2
100
AcDbSymbolTableRecord
100
AcDbLayerTableRecord
  2
FRAMELAYER-059
 70
     0
 62
     7
  6
Continuous
370
    -3
390
F
  0
LAYER
  5
18C
330
2
100
AcDbSymbolTableRecord
100
AcDbLayerTableRecord
  2
FRAMELAYER-060
 70
     0
 62
     7
  6
Continuous
370
    -3
390
F
  0
LAYER
  5
18D
330
2
100
AcDbSymbolTableRecord
100
AcDbLayerTableRecord
  2
FRAMELAYER-061
 70
     0
 62
     7
  6
Continuous
370
    -3
390
F
  0
LAYER
  5
18E
330
2
100
AcDbSymbolTableRecord
100
AcDbLayerTableRecord
  2
FRAMELAYER-062
 70
     0
 62
     7
  6
Continuous
370
    -3
390
F
  0
LAYER
  5
18F
330
2
100
AcDbSymbolTableRecord
100
AcDbLayerTableRecord
  2
FRAMELAYER-063
 70
     0
 62
     7
  6
Continuous
370
    -3
390
F
  0
LAYER
  5
190
330
2
100
AcDbSymbolTableRecord
100
AcDbLayerTableRecord
  2
FRAMELAYER-064
 70
     0
 62
     2
  6
Continuous
370
    -3
390
F
  0
LAYER
  5
191
330
2
100
AcDbSymbolTableRecord
100
AcDbLayerTableRecord
  2
FRAMELAYER-065
 70
     0
 62
     7
  6
Continuous
370
    -3
390
F
  0
LAYER
  5
192
330
2
100
AcDbSymbolTableRecord
100
AcDbLayerTableRecord
  2
FRAMELAYER-066
 70
     0
 62
     2
  6
Continuous
370
    -3
390
F
  0
LAYER
  5
193
330
2
100
AcDbSymbolTableRecord
100
AcDbLayerTableRecord
  2
FRAMELAYER-067
 70
     0
 62
     2
  6
Continuous
370
    -3
390
F
  0
LAYER
  5
194
330
2
100
AcDbSymbolTableRecord
100
AcDbLayerTableRecord
  2
FRAMELAYER-068
 70
     0
 62
     7
  6
Continuous
370
    -3
390
F
  0
LAYER
  5
195
330
2
100
AcDbSymbolTableRecord
100
AcDbLayerTableRecord
  2
FRAMELAYER-069
 70
     0
 62
     7
  6
Continuous
370
    -3
390
F
  0
LAYER
  5
196
330
2
100
AcDbSymbolTableRecord
100
AcDbLayerTableRecord
  2
FRAMELAYER-070
 70
     0
 62
     7
  6
Continuous
370
    -3
390
F
  0
LAYER
  5
197
330
2
100
AcDbSymbolTableRecord
100
AcDbLayerTableRecord
  2
FRAMELAYER-071
 70
     0
 62
     7
  6
Continuous
370
    -3
390
F
  0
LAYER
  5
198
330
2
100
AcDbSymbolTableRecord
100
AcDbLayerTableRecord
  2
FRAMELAYER-072
 70
     0
 62
     7
  6
Continuous
370
    -3
390
F
  0
LAYER
  5
199
330
2
100
AcDbSymbolTableRecord
100
AcDbLayerTableRecord
  2
FRAMELAYER-073
 70
     0
 62
     7
  6
Continuous
370
    -3
390
F
  0
LAYER
  5
19A
330
2
100
AcDbSymbolTableRecord
100
AcDbLayerTableRecord
  2
FRAMELAYER-074
 70
     0
 62
     7
  6
Continuous
370
    -3
390
F
  0
LAYER
  5
19B
330
2
100
AcDbSymbolTableRecord
100
AcDbLayerTableRecord
  2
FRAMELAYER-075
 70
     0
 62
     7
  6
Continuous
370
    -3
390
F
  0
LAYER
  5
19C
330
2
100
AcDbSymbolTableRecord
100
AcDbLayerTableRecord
  2
FRAMELAYER-076
 70
     0
 62
     7
  6
Continuous
370
    -3
390
F
  0
LAYER
  5
19D
330
2
100
AcDbSymbolTableRecord
100
AcDbLayerTableRecord
  2
FRAMELAYER-077
 70
     0
 62
     7
  6
Continuous
370
    -3
390
F
  0
LAYER
  5
19E
330
2
100
AcDbSymbolTableRecord
100
AcDbLayerTableRecord
  2
FRAMELAYER-078
 70
     0
 62
     7
  6
Continuous
370
    -3
390
F
  0
LAYER
  5
19F
330
2
100
AcDbSymbolTableRecord
100
AcDbLayerTableRecord
  2
FRAMELAYER-079
 70
     0
 62
     7
  6
Continuous
370
    -3
390
F
  0
LAYER
  5
1A0
330
2
100
AcDbSymbolTableRecord
100
AcDbLayerTableRecord
  2
FRAMELAYER-080
 70
     0
 62
     2
  6
Continuous
370
    -3
390
F
  0
LAYER
  5
1A1
330
2
100
AcDbSymbolTableRecord
100
AcDbLayerTableRecord
  2
FRAMELAYER-081
 70
     0
 62
     7
  6
Continuous
370
    -3
390
F
  0
LAYER
  5
1A2
330
2
100
AcDbSymbolTableRecord
100
AcDbLayerTableRecord
  2
FRAMELAYER-082
 70
     0
 62
     7
  6
Continuous
370
    -3
390
F
  0
LAYER
  5
1A3
330
2
100
AcDbSymbolTableRecord
100
AcDbLayerTableRecord
  2
FRAMELAYER-083
 70
     0
 62
     7
  6
Continuous
370
    -3
390
F
  0
LAYER
  5
1A4
330
2
100
AcDbSymbolTableRecord
100
AcDbLayerTableRecord
  2
FRAMELAYER-084
 70
     0
 62
     7
  6
Continuous
370
    -3
390
F
  0
LAYER
  5
1A5
330
2
100
AcDbSymbolTableRecord
100
AcDbLayerTableRecord
  2
FRAMELAYER-085
 70
     0
 62
     7
  6
Continuous
370
    -3
390
F
  0
LAYER
  5
1A6
330
2
100
AcDbSymbolTableRecord
100
AcDbLayerTableRecord
  2
FRAMELAYER-086
 70
     0
 62
     7
  6
Continuous
370
    -3
390
F
  0
LAYER
  5
1A7
330
2
100
AcDbSymbolTableRecord
100
AcDbLayerTableRecord
  2
FRAMELAYER-087
 70
     0
 62
     7
  6
Continuous
370
    -3
390
F
  0
LAYER
  5
1A8
330
2
100
AcDbSymbolTableRecord
100
AcDbLayerTableRecord
  2
FRAMELAYER-088
 70
     0
 62
     7
  6
Continuous
370
    -3
390
F
  0
LAYER
  5
1A9
330
2
100
AcDbSymbolTableRecord
100
AcDbLayerTableRecord
  2
FRAMELAYER-089
 70
     0
 62
     7
  6
Continuous
370
    -3
390
F
  0
LAYER
  5
1AA
330
2
100
AcDbSymbolTableRecord
100
AcDbLayerTableRecord
  2
FRAMELAYER-090
 70
     0
 62
     7
  6
Continuous
370
    -3
390
F
  0
LAYER
  5
1AB
330
2
100
AcDbSymbolTableRecord
100
AcDbLayerTableRecord
  2
FRAMELAYER-091
 70
     0
 62
     7
  6
Continuous
370
    -3
390
F
  0
LAYER
  5
1AC
330
2
100
AcDbSymbolTableRecord
100
AcDbLayerTableRecord
  2
FRAMELAYER-092
 70
     0
 62
     7
  6
Continuous
370
    -3
390
F
  0
LAYER
  5
1AD
330
2
100
AcDbSymbolTableRecord
100
AcDbLayerTableRecord
  2
FRAMELAYER-093
 70
     0
 62
     7
  6
Continuous
370
    -3
390
F
  0
LAYER
  5
1AE
330
2
100
AcDbSymbolTableRecord
100
AcDbLayerTableRecord
  2
FRAMELAYER-094
 70
     0
 62
     7
  6
Continuous
370
    -3
390
F
  0
LAYER
  5
1AF
330
2
100
AcDbSymbolTableRecord
100
AcDbLayerTableRecord
  2
FRAMELAYER-095
 70
     0
 62
     7
  6
Continuous
370
    -3
390
F
  0
LAYER
  5
1B0
330
2
100
AcDbSymbolTableRecord
100
AcDbLayerTableRecord
  2
FRAMELAYER-096
 70
     0
 62
     7
  6
Continuous
370
    -3
390
F
  0
LAYER
  5
1B1
330
2
100
AcDbSymbolTableRecord
100
AcDbLayerTableRecord
  2
FRAMELAYER-097
 70
     0
 62
     7
  6
Continuous
370
    -3
390
F
  0
LAYER
  5
1B2
330
2
100
AcDbSymbolTableRecord
100
AcDbLayerTableRecord
  2
FRAMELAYER-098
 70
     0
 62
     7
  6
Continuous
370
    -3
390
F
  0
LAYER
  5
1B3
330
2
100
AcDbSymbolTableRecord
100
AcDbLayerTableRecord
  2
FRAMELAYER-099
 70
     0
 62
     7
  6
Continuous
370
    -3
390
F
  0
LAYER
  5
1B4
330
2
100
AcDbSymbolTableRecord
100
AcDbLayerTableRecord
  2
FRAMELAYER-100
 70
     0
 62
     7
  6
Continuous
370
    -3
390
F
  0
LAYER
  5
1B5
330
2
100
AcDbSymbolTableRecord
100
AcDbLayerTableRecord
  2
FRAMELAYER-101
 70
     0
 62
     7
  6
Continuous
370
    -3
390
F
  0
LAYER
  5
1B6
330
2
100
AcDbSymbolTableRecord
100
AcDbLayerTableRecord
  2
FRAMELAYER-102
 70
     0
 62
     7
  6
Continuous
370
    -3
390
F
  0
LAYER
  5
1B7
330
2
100
AcDbSymbolTableRecord
100
AcDbLayerTableRecord
  2
FRAMELAYER-103
 70
     0
 62
     7
  6
Continuous
370
    -3
390
F
  0
LAYER
  5
1B8
330
2
100
AcDbSymbolTableRecord
100
AcDbLayerTableRecord
  2
FRAMELAYER-104
 70
     0
 62
     7
  6
Continuous
370
    -3
390
F
  0
LAYER
  5
1B9
330
2
100
AcDbSymbolTableRecord
100
AcDbLayerTableRecord
  2
FRAMELAYER-105
 70
     0
 62
     7
  6
Continuous
370
    -3
390
F
  0
LAYER
  5
1BA
330
2
100
AcDbSymbolTableRecord
100
AcDbLayerTableRecord
  2
FRAMELAYER-106
 70
     0
 62
     7
  6
Continuous
370
    -3
390
F
  0
LAYER
  5
1BB
330
2
100
AcDbSymbolTableRecord
100
AcDbLayerTableRecord
  2
FRAMELAYER-107
 70
     0
 62
     7
  6
Continuous
370
    -3
390
F
  0
LAYER
  5
1BC
330
2
100
AcDbSymbolTableRecord
100
AcDbLayerTableRecord
  2
FRAMELAYER-108
 70
     0
 62
     7
  6
Continuous
370
    -3
390
F
  0
LAYER
  5
1BD
330
2
100
AcDbSymbolTableRecord
100
AcDbLayerTableRecord
  2
FRAMELAYER-109
 70
     0
 62
     7
  6
Continuous
370
    -3
390
F
  0
LAYER
  5
1BE
330
2
100
AcDbSymbolTableRecord
100
AcDbLayerTableRecord
  2
FRAMELAYER-110
 70
     0
 62
     7
  6
Continuous
370
    -3
390
F
  0
LAYER
  5
1BF
330
2
100
AcDbSymbolTableRecord
100
AcDbLayerTableRecord
  2
FRAMELAYER-111
 70
     0
 62
     7
  6
Continuous
370
    -3
390
F
  0
LAYER
  5
1C0
330
2
100
AcDbSymbolTableRecord
100
AcDbLayerTableRecord
  2
FRAMELAYER-112
 70
     0
 62
     7
  6
Continuous
370
    -3
390
F
  0
LAYER
  5
1C1
330
2
100
AcDbSymbolTableRecord
100
AcDbLayerTableRecord
  2
FRAMELAYER-113
 70
     0
 62
     7
  6
Continuous
370
    -3
390
F
  0
LAYER
  5
1C2
330
2
100
AcDbSymbolTableRecord
100
AcDbLayerTableRecord
  2
FRAMELAYER-114
 70
     0
 62
     7
  6
Continuous
370
    -3
390
F
  0
LAYER
  5
1C3
330
2
100
AcDbSymbolTableRecord
100
AcDbLayerTableRecord
  2
FRAMELAYER-115
 70
     0
 62
     7
  6
Continuous
370
    -3
390
F
  0
LAYER
  5
1C4
330
2
100
AcDbSymbolTableRecord
100
AcDbLayerTableRecord
  2
FRAMELAYER-116
 70
     0
 62
     7
  6
Continuous
370
    -3
390
F
  0
LAYER
  5
1C5
330
2
100
AcDbSymbolTableRecord
100
AcDbLayerTableRecord
  2
FRAMELAYER-117
 70
     0
 62
     7
  6
Continuous
370
    -3
390
F
  0
LAYER
  5
1C6
330
2
100
AcDbSymbolTableRecord
100
AcDbLayerTableRecord
  2
FRAMELAYER-118
 70
     0
 62
     7
  6
Continuous
370
    -3
390
F
  0
LAYER
  5
1C7
330
2
100
AcDbSymbolTableRecord
100
AcDbLayerTableRecord
  2
FRAMELAYER-119
 70
     0
 62
     7
  6
Continuous
370
    -3
390
F
  0
LAYER
  5
1C8
330
2
100
AcDbSymbolTableRecord
100
AcDbLayerTableRecord
  2
FRAMELAYER-120
 70
     0
 62
     7
  6
Continuous
370
    -3
390
F
  0
LAYER
  5
1C9
330
2
100
AcDbSymbolTableRecord
100
AcDbLayerTableRecord
  2
FRAMELAYER-121
 70
     0
 62
     7
  6
Continuous
370
    -3
390
F
  0
LAYER
  5
1CA
330
2
100
AcDbSymbolTableRecord
100
AcDbLayerTableRecord
  2
FRAMELAYER-122
 70
     0
 62
     7
  6
Continuous
370
    -3
390
F
  0
LAYER
  5
1CB
330
2
100
AcDbSymbolTableRecord
100
AcDbLayerTableRecord
  2
FRAMELAYER-123
 70
     0
 62
     7
  6
Continuous
370
    -3
390
F
  0
LAYER
  5
1CC
330
2
100
AcDbSymbolTableRecord
100
AcDbLayerTableRecord
  2
FRAMELAYER-124
 70
     0
 62
     7
  6
Continuous
370
    -3
390
F
  0
LAYER
  5
1CD
330
2
100
AcDbSymbolTableRecord
100
AcDbLayerTableRecord
  2
FRAMELAYER-125
 70
     0
 62
     7
  6
Continuous
370
    -3
390
F
  0
LAYER
  5
1CE
330
2
100
AcDbSymbolTableRecord
100
AcDbLayerTableRecord
  2
FRAMELAYER-126
 70
     0
 62
     7
  6
Continuous
370
    -3
390
F
  0
LAYER
  5
1CF
330
2
100
AcDbSymbolTableRecord
100
AcDbLayerTableRecord
  2
FRAMELAYER-127
 70
     0
 62
     7
  6
Continuous
370
    -3
390
F
  0
LAYER
  5
1D0
330
2
100
AcDbSymbolTableRecord
100
AcDbLayerTableRecord
  2
FRAMELAYER-128
 70
     0
 62
     7
  6
Continuous
370
    -3
390
F
  0
LAYER
  5
1D1
330
2
100
AcDbSymbolTableRecord
100
AcDbLayerTableRecord
  2
FRAMELAYER-129
 70
     0
 62
     7
  6
Continuous
370
    -3
390
F
  0
LAYER
  5
1D2
330
2
100
AcDbSymbolTableRecord
100
AcDbLayerTableRecord
  2
FRAMELAYER-130
 70
     0
 62
     7
  6
Continuous
370
    -3
390
F
  0
LAYER
  5
1D3
330
2
100
AcDbSymbolTableRecord
100
AcDbLayerTableRecord
  2
FRAMELAYER-131
 70
     0
 62
     7
  6
Continuous
370
    -3
390
F
  0
LAYER
  5
1D4
330
2
100
AcDbSymbolTableRecord
100
AcDbLayerTableRecord
  2
FRAMELAYER-132
 70
     0
 62
     7
  6
Continuous
370
    -3
390
F
  0
LAYER
  5
1D5
330
2
100
AcDbSymbolTableRecord
100
AcDbLayerTableRecord
  2
FRAMELAYER-133
 70
     0
 62
     7
  6
Continuous
370
    -3
390
F
  0
LAYER
  5
1D6
330
2
100
AcDbSymbolTableRecord
100
AcDbLayerTableRecord
  2
FRAMELAYER-134
 70
     0
 62
     7
  6
Continuous
370
    -3
390
F
  0
LAYER
  5
1D7
330
2
100
AcDbSymbolTableRecord
100
AcDbLayerTableRecord
  2
FRAMELAYER-135
 70
     0
 62
    -4
  6
Continuous
370
    -3
390
F
  0
LAYER
  5
1D8
330
2
100
AcDbSymbolTableRecord
100
AcDbLayerTableRecord
  2
FRAMELAYER-136
 70
     0
 62
    -3
  6
Continuous
370
    -3
390
F
  0
LAYER
  5
1D9
330
2
100
AcDbSymbolTableRecord
100
AcDbLayerTableRecord
  2
FRAMELAYER-137
 70
     0
 62
    -1
  6
Continuous
370
    -3
390
F
  0
LAYER
  5
1DA
330
2
100
AcDbSymbolTableRecord
100
AcDbLayerTableRecord
  2
FRAMELAYER-138
 70
     0
 62
     7
  6
Continuous
370
    -3
390
F
  0
LAYER
  5
1DB
330
2
100
AcDbSymbolTableRecord
100
AcDbLayerTableRecord
  2
FRAMELAYER-139
 70
     0
 62
     7
  6
Continuous
370
    -3
390
F
  0
LAYER
  5
1DC
330
2
100
AcDbSymbolTableRecord
100
AcDbLayerTableRecord
  2
FRAMELAYER-140
 70
     0
 62
     7
  6
Continuous
370
    -3
390
F
  0
LAYER
  5
1DD
330
2
100
AcDbSymbolTableRecord
100
AcDbLayerTableRecord
  2
FRAMELAYER-141
 70
     0
 62
     7
  6
Continuous
370
    -3
390
F
  0
LAYER
  5
1DE
330
2
100
AcDbSymbolTableRecord
100
AcDbLayerTableRecord
  2
FRAMELAYER-142
 70
     0
 62
     3
  6
Continuous
370
    -3
390
F
  0
LAYER
  5
1DF
330
2
100
AcDbSymbolTableRecord
100
AcDbLayerTableRecord
  2
FRAMELAYER-143
 70
     0
 62
     7
  6
Continuous
370
    -3
390
F
  0
LAYER
  5
1E0
330
2
100
AcDbSymbolTableRecord
100
AcDbLayerTableRecord
  2
FRAMELAYER-144
 70
     0
 62
     7
  6
Continuous
370
    -3
390
F
  0
LAYER
  5
1E1
330
2
100
AcDbSymbolTableRecord
100
AcDbLayerTableRecord
  2
FRAMELAYER-145
 70
     0
 62
     3
  6
Continuous
370
    -3
390
F
  0
LAYER
  5
1E2
330
2
100
AcDbSymbolTableRecord
100
AcDbLayerTableRecord
  2
FRAMELAYER-146
 70
     0
 62
     7
  6
Continuous
370
    -3
390
F
  0
LAYER
  5
1E3
330
2
100
AcDbSymbolTableRecord
100
AcDbLayerTableRecord
  2
FRAMELAYER-147
 70
     0
 62
     7
  6
Continuous
370
    -3
390
F
  0
LAYER
  5
1E4
330
2
100
AcDbSymbolTableRecord
100
AcDbLayerTableRecord
  2
FRAMELAYER-148
 70
     0
 62
     7
  6
Continuous
370
    -3
390
F
  0
LAYER
  5
1E5
330
2
100
AcDbSymbolTableRecord
100
AcDbLayerTableRecord
  2
FRAMELAYER-149
 70
     0
 62
     7
  6
Continuous
370
    -3
390
F
  0
LAYER
  5
1E6
330
2
100
AcDbSymbolTableRecord
100
AcDbLayerTableRecord
  2
FRAMELAYER-150
 70
     0
 62
     7
  6
Continuous
370
    -3
390
F
  0
LAYER
  5
1E7
330
2
100
AcDbSymbolTableRecord
100
AcDbLayerTableRecord
  2
FRAMELAYER-151
 70
     0
 62
     7
  6
Continuous
370
    -3
390
F
  0
LAYER
  5
1E8
330
2
100
AcDbSymbolTableRecord
100
AcDbLayerTableRecord
  2
FRAMELAYER-152
 70
     0
 62
     7
  6
Continuous
370
    -3
390
F
  0
LAYER
  5
1E9
330
2
100
AcDbSymbolTableRecord
100
AcDbLayerTableRecord
  2
FRAMELAYER-153
 70
     0
 62
     7
  6
Continuous
370
    -3
390
F
  0
LAYER
  5
1EA
330
2
100
AcDbSymbolTableRecord
100
AcDbLayerTableRecord
  2
FRAMELAYER-154
 70
     0
 62
     7
  6
Continuous
370
    -3
390
F
  0
LAYER
  5
1EB
330
2
100
AcDbSymbolTableRecord
100
AcDbLayerTableRecord
  2
FRAMELAYER-155
 70
     0
 62
     7
  6
Continuous
370
    -3
390
F
  0
LAYER
  5
1EC
330
2
100
AcDbSymbolTableRecord
100
AcDbLayerTableRecord
  2
FRAMELAYER-156
 70
     0
 62
     7
  6
Continuous
370
    -3
390
F
  0
LAYER
  5
1ED
330
2
100
AcDbSymbolTableRecord
100
AcDbLayerTableRecord
  2
FRAMELAYER-157
 70
     0
 62
     7
  6
Continuous
370
    -3
390
F
  0
LAYER
  5
1EE
330
2
100
AcDbSymbolTableRecord
100
AcDbLayerTableRecord
  2
FRAMELAYER-158
 70
     0
 62
     7
  6
Continuous
370
    -3
390
F
  0
LAYER
  5
1EF
330
2
100
AcDbSymbolTableRecord
100
AcDbLayerTableRecord
  2
FRAMELAYER-159
 70
     0
 62
     7
  6
Continuous
370
    -3
390
F
  0
LAYER
  5
1F0
330
2
100
AcDbSymbolTableRecord
100
AcDbLayerTableRecord
  2
FRAMELAYER-160
 70
     0
 62
     7
  6
Continuous
370
    -3
390
F
  0
LAYER
  5
1F1
330
2
100
AcDbSymbolTableRecord
100
AcDbLayerTableRecord
  2
FRAMELAYER-161
 70
     0
 62
     7
  6
Continuous
370
    -3
390
F
  0
LAYER
  5
1F2
330
2
100
AcDbSymbolTableRecord
100
AcDbLayerTableRecord
  2
FRAMELAYER-162
 70
     0
 62
     7
  6
Continuous
370
    -3
390
F
  0
LAYER
  5
1F3
330
2
100
AcDbSymbolTableRecord
100
AcDbLayerTableRecord
  2
FRAMELAYER-163
 70
     0
 62
     7
  6
Continuous
370
    -3
390
F
  0
LAYER
  5
1F4
330
2
100
AcDbSymbolTableRecord
100
AcDbLayerTableRecord
  2
FRAMELAYER-164
 70
     0
 62
     7
  6
Continuous
370
    -3
390
F
  0
LAYER
  5
1F5
330
2
100
AcDbSymbolTableRecord
100
AcDbLayerTableRecord
  2
FRAMELAYER-165
 70
     0
 62
     7
  6
Continuous
370
    -3
390
F
  0
LAYER
  5
1F6
330
2
100
AcDbSymbolTableRecord
100
AcDbLayerTableRecord
  2
FRAMELAYER-166
 70
     0
 62
     7
  6
Continuous
370
    -3
390
F
  0
LAYER
  5
1F7
330
2
100
AcDbSymbolTableRecord
100
AcDbLayerTableRecord
  2
FRAMELAYER-167
 70
     0
 62
     7
  6
Continuous
370
    -3
390
F
  0
LAYER
  5
1F8
330
2
100
AcDbSymbolTableRecord
100
AcDbLayerTableRecord
  2
FRAMELAYER-168
 70
     0
 62
     7
  6
Continuous
370
    -3
390
F
  0
LAYER
  5
1F9
330
2
100
AcDbSymbolTableRecord
100
AcDbLayerTableRecord
  2
FRAMELAYER-169
 70
     0
 62
     7
  6
Continuous
370
    -3
390
F
  0
LAYER
  5
1FA
330
2
100
AcDbSymbolTableRecord
100
AcDbLayerTableRecord
  2
FRAMELAYER-170
 70
     0
 62
     7
  6
Continuous
370
    -3
390
F
  0
LAYER
  5
1FB
330
2
100
AcDbSymbolTableRecord
100
AcDbLayerTableRecord
  2
FRAMELAYER-171
 70
     0
 62
     7
  6
Continuous
370
    -3
390
F
  0
LAYER
  5
1FC
330
2
100
AcDbSymbolTableRecord
100
AcDbLayerTableRecord
  2
FRAMELAYER-172
 70
     0
 62
     7
  6
Continuous
370
    -3
390
F
  0
LAYER
  5
1FD
330
2
100
AcDbSymbolTableRecord
100
AcDbLayerTableRecord
  2
FRAMELAYER-173
 70
     0
 62
     7
  6
Continuous
370
    -3
390
F
  0
LAYER
  5
1FE
330
2
100
AcDbSymbolTableRecord
100
AcDbLayerTableRecord
  2
FRAMELAYER-174
 70
     0
 62
     7
  6
Continuous
370
    -3
390
F
  0
LAYER
  5
1FF
330
2
100
AcDbSymbolTableRecord
100
AcDbLayerTableRecord
  2
FRAMELAYER-175
 70
     0
 62
     7
  6
Continuous
370
    -3
390
F
  0
LAYER
  5
200
330
2
100
AcDbSymbolTableRecord
100
AcDbLayerTableRecord
  2
FRAMELAYER-176
 70
     0
 62
     7
  6
Continuous
370
    -3
390
F
  0
LAYER
  5
201
330
2
100
AcDbSymbolTableRecord
100
AcDbLayerTableRecord
  2
FRAMELAYER-177
 70
     0
 62
     7
  6
Continuous
370
    -3
390
F
  0
LAYER
  5
202
330
2
100
AcDbSymbolTableRecord
100
AcDbLayerTableRecord
  2
FRAMELAYER-178
 70
     0
 62
     7
  6
Continuous
370
    -3
390
F
  0
LAYER
  5
203
330
2
100
AcDbSymbolTableRecord
100
AcDbLayerTableRecord
  2
FRAMELAYER-179
 70
     0
 62
     7
  6
Continuous
370
    -3
390
F
  0
LAYER
  5
204
330
2
100
AcDbSymbolTableRecord
100
AcDbLayerTableRecord
  2
FRAMELAYER-180
 70
     0
 62
     7
  6
Continuous
370
    -3
390
F
  0
LAYER
  5
205
330
2
100
AcDbSymbolTableRecord
100
AcDbLayerTableRecord
  2
FRAMELAYER-181
 70
     0
 62
     7
  6
Continuous
370
    -3
390
F
  0
LAYER
  5
206
330
2
100
AcDbSymbolTableRecord
100
AcDbLayerTableRecord
  2
FRAMELAYER-182
 70
     0
 62
     7
  6
Continuous
370
    -3
390
F
  0
LAYER
  5
207
330
2
100
AcDbSymbolTableRecord
100
AcDbLayerTableRecord
  2
FRAMELAYER-183
 70
     0
 62
     7
  6
Continuous
370
    -3
390
F
  0
LAYER
  5
208
330
2
100
AcDbSymbolTableRecord
100
AcDbLayerTableRecord
  2
FRAMELAYER-184
 70
     0
 62
     7
  6
Continuous
370
    -3
390
F
  0
LAYER
  5
209
330
2
100
AcDbSymbolTableRecord
100
AcDbLayerTableRecord
  2
FRAMELAYER-185
 70
     0
 62
     7
  6
Continuous
370
    -3
390
F
  0
LAYER
  5
20A
330
2
100
AcDbSymbolTableRecord
100
AcDbLayerTableRecord
  2
FRAMELAYER-186
 70
     0
 62
     7
  6
Continuous
370
    -3
390
F
  0
LAYER
  5
20B
330
2
100
AcDbSymbolTableRecord
100
AcDbLayerTableRecord
  2
FRAMELAYER-187
 70
     0
 62
     7
  6
Continuous
370
    -3
390
F
  0
LAYER
  5
20C
330
2
100
AcDbSymbolTableRecord
100
AcDbLayerTableRecord
  2
FRAMELAYER-188
 70
     0
 62
     7
  6
Continuous
370
    -3
390
F
  0
LAYER
  5
20D
330
2
100
AcDbSymbolTableRecord
100
AcDbLayerTableRecord
  2
FRAMELAYER-189
 70
     0
 62
     7
  6
Continuous
370
    -3
390
F
  0
LAYER
  5
20E
330
2
100
AcDbSymbolTableRecord
100
AcDbLayerTableRecord
  2
FRAMELAYER-190
 70
     0
 62
     7
  6
Continuous
370
    -3
390
F
  0
LAYER
  5
20F
330
2
100
AcDbSymbolTableRecord
100
AcDbLayerTableRecord
  2
FRAMELAYER-191
 70
     0
 62
     7
  6
Continuous
370
    -3
390
F
  0
LAYER
  5
210
330
2
100
AcDbSymbolTableRecord
100
AcDbLayerTableRecord
  2
FRAMELAYER-192
 70
     0
 62
     7
  6
Continuous
370
    -3
390
F
  0
LAYER
  5
211
330
2
100
AcDbSymbolTableRecord
100
AcDbLayerTableRecord
  2
FRAMELAYER-193
 70
     0
 62
     7
  6
Continuous
370
    -3
390
F
  0
LAYER
  5
212
330
2
100
AcDbSymbolTableRecord
100
AcDbLayerTableRecord
  2
FRAMELAYER-194
 70
     0
 62
     2
  6
Continuous
370
    -3
390
F
  0
LAYER
  5
213
330
2
100
AcDbSymbolTableRecord
100
AcDbLayerTableRecord
  2
FRAMELAYER-195
 70
     0
 62
     2
  6
Continuous
370
    -3
390
F
  0
LAYER
  5
214
330
2
100
AcDbSymbolTableRecord
100
AcDbLayerTableRecord
  2
FRAMELAYER-196
 70
     0
 62
     2
  6
Continuous
370
    -3
390
F
  0
LAYER
  5
215
330
2
100
AcDbSymbolTableRecord
100
AcDbLayerTableRecord
  2
FRAMELAYER-197
 70
     0
 62
     7
  6
Continuous
370
    -3
390
F
  0
LAYER
  5
216
330
2
100
AcDbSymbolTableRecord
100
AcDbLayerTableRecord
  2
FRAMELAYER-198
 70
     0
 62
     7
  6
Continuous
370
    -3
390
F
  0
LAYER
  5
217
330
2
100
AcDbSymbolTableRecord
100
AcDbLayerTableRecord
  2
FRAMELAYER-199
 70
     0
 62
     4
  6
Continuous
370
    -3
390
F
  0
LAYER
  5
218
330
2
100
AcDbSymbolTableRecord
100
AcDbLayerTableRecord
  2
FRAMELAYER-200
 70
     0
 62
     1
  6
Continuous
370
    -3
390
F
  0
LAYER
  5
219
330
2
100
AcDbSymbolTableRecord
100
AcDbLayerTableRecord
  2
FRAMELAYER-201
 70
     0
 62
     1
  6
Continuous
370
    -3
390
F
  0
LAYER
  5
21A
330
2
100
AcDbSymbolTableRecord
100
AcDbLayerTableRecord
  2
FRAMELAYER-202
 70
     0
 62
     2
  6
Continuous
370
    -3
390
F
  0
LAYER
  5
21B
330
2
100
AcDbSymbolTableRecord
100
AcDbLayerTableRecord
  2
FRAMELAYER-203
 70
     0
 62
     2
  6
Continuous
370
    -3
390
F
  0
LAYER
  5
21C
330
2
100
AcDbSymbolTableRecord
100
AcDbLayerTableRecord
  2
FRAMELAYER-204
 70
     0
 62
     7
  6
Continuous
370
    -3
390
F
  0
LAYER
  5
21D
330
2
100
AcDbSymbolTableRecord
100
AcDbLayerTableRecord
  2
FRAMELAYER-205
 70
     0
 62
     7
  6
Continuous
370
    -3
390
F
  0
LAYER
  5
21E
330
2
100
AcDbSymbolTableRecord
100
AcDbLayerTableRecord
  2
FRAMELAYER-206
 70
     0
 62
     7
  6
Continuous
370
    -3
390
F
  0
LAYER
  5
21F
330
2
100
AcDbSymbolTableRecord
100
AcDbLayerTableRecord
  2
FRAMELAYER-207
 70
     0
 62
    -7
  6
Continuous
370
    -3
390
F
  0
LAYER
  5
220
330
2
100
AcDbSymbolTableRecord
100
AcDbLayerTableRecord
  2
FRAMELAYER-208
 70
     0
 62
     2
  6
Continuous
370
    -3
390
F
  0
LAYER
  5
221
330
2
100
AcDbSymbolTableRecord
100
AcDbLayerTableRecord
  2
FRAMELAYER-209
 70
     0
 62
     7
  6
Continuous
370
    -3
390
F
  0
LAYER
  5
222
330
2
100
AcDbSymbolTableRecord
100
AcDbLayerTableRecord
  2
FRAMELAYER-210
 70
     0
 62
     2
  6
Continuous
370
    -3
390
F
  0
LAYER
  5
223
330
2
100
AcDbSymbolTableRecord
100
AcDbLayerTableRecord
  2
FRAMELAYER-211
 70
     0
 62
     7
  6
Continuous
370
    -3
390
F
  0
LAYER
  5
224
330
2
100
AcDbSymbolTableRecord
100
AcDbLayerTableRecord
  2
FRAMELAYER-212
 70
     0
 62
     7
  6
Continuous
370
    -3
390
F
  0
LAYER
  5
225
330
2
100
AcDbSymbolTableRecord
100
AcDbLayerTableRecord
  2
FRAMELAYER-213
 70
     0
 62
     2
  6
Continuous
370
    -3
390
F
  0
LAYER
  5
226
330
2
100
AcDbSymbolTableRecord
100
AcDbLayerTableRecord
  2
FRAMELAYER-214
 70
     0
 62
     7
  6
Continuous
370
    -3
390
F
  0
LAYER
  5
227
330
2
100
AcDbSymbolTableRecord
100
AcDbLayerTableRecord
  2
FRAMELAYER-215
 70
     0
 62
     7
  6
Continuous
370
    -3
390
F
  0
LAYER
  5
228
330
2
100
AcDbSymbolTableRecord
100
AcDbLayerTableRecord
  2
FRAMELAYER-216
 70
     0
 62
     4
  6
Continuous
370
    -3
390
F
  0
LAYER
  5
229
330
2
100
AcDbSymbolTableRecord
100
AcDbLayerTableRecord
  2
FRAMELAYER-217
 70
     0
 62
     7
  6
Continuous
370
    -3
390
F
  0
LAYER
  5
22A
330
2
100
AcDbSymbolTableRecord
100
AcDbLayerTableRecord
  2
FRAMELAYER-218
 70
     0
 62
     7
  6
Continuous
370
    -3
390
F
  0
LAYER
  5
22B
330
2
100
AcDbSymbolTableRecord
100
AcDbLayerTableRecord
  2
FRAMELAYER-219
 70
     0
 62
     7
  6
Continuous
370
    -3
390
F
  0
LAYER
  5
22C
330
2
100
AcDbSymbolTableRecord
100
AcDbLayerTableRecord
  2
FRAMELAYER-220
 70
     0
 62
     4
  6
Continuous
370
    -3
390
F
  0
LAYER
  5
22D
330
2
100
AcDbSymbolTableRecord
100
AcDbLayerTableRecord
  2
FRAMELAYER-221
 70
     0
 62
    -7
  6
Continuous
290
     0
370
    -3
390
F
  0
LAYER
  5
22E
330
2
100
AcDbSymbolTableRecord
100
AcDbLayerTableRecord
  2
FRAMELAYER-222
 70
     0
 62
    -4
  6
Continuous
290
     0
370
    -3
390
F
  0
LAYER
  5
22F
330
2
100
AcDbSymbolTableRecord
100
AcDbLayerTableRecord
  2
FRAMELAYER-223
 70
     0
 62
    -1
  6
Continuous
290
     0
370
    -3
390
F
  0
LAYER
  5
230
330
2
100
AcDbSymbolTableRecord
100
AcDbLayerTableRecord
  2
FRAMELAYER-224
 70
     0
 62
    -1
  6
Continuous
290
     0
370
    -3
390
F
  0
LAYER
  5
231
330
2
100
AcDbSymbolTableRecord
100
AcDbLayerTableRecord
  2
FRAMELAYER-225
 70
     0
 62
     7
  6
Continuous
370
    -3
390
F
  0
LAYER
  5
232
330
2
100
AcDbSymbolTableRecord
100
AcDbLayerTableRecord
  2
FRAMELAYER-226
 70
     0
 62
     2
  6
Continuous
370
    -3
390
F
  0
LAYER
  5
233
330
2
100
AcDbSymbolTableRecord
100
AcDbLayerTableRecord
  2
FRAMELAYER-227
 70
     0
 62
     7
  6
Continuous
370
    -3
390
F
  0
LAYER
  5
234
330
2
100
AcDbSymbolTableRecord
100
AcDbLayerTableRecord
  2
FRAMELAYER-228
 70
     0
 62
     7
  6
Continuous
370
    -3
390
F
  0
LAYER
  5
235
330
2
100
AcDbSymbolTableRecord
100
AcDbLayerTableRecord
  2
FRAMELAYER-229
 70
     0
 62
     7
  6
Continuous
370
    -3
390
F
  0
LAYER
  5
236
330
2
100
AcDbSymbolTableRecord
100
AcDbLayerTableRecord
  2
FRAMELAYER-230
 70
     0
 62
     7
  6
Continuous
370
    -3
390
F
  0
LAYER
  5
237
330
2
100
AcDbSymbolTableRecord
100
AcDbLayerTableRecord
  2
FRAMELAYER-231
 70
     0
 62
     7
  6
Continuous
370
    -3
390
F
  0
LAYER
  5
238
330
2
100
AcDbSymbolTableRecord
100
AcDbLayerTableRecord
  2
FRAMELAYER-232
 70
     0
 62
     7
  6
Continuous
370
    -3
390
F
  0
LAYER
  5
239
330
2
100
AcDbSymbolTableRecord
100
AcDbLayerTableRecord
  2
FRAMELAYER-233
 70
     0
 62
     7
  6
Continuous
370
    -3
390
F
  0
LAYER
  5
23A
330
2
100
AcDbSymbolTableRecord
100
AcDbLayerTableRecord
  2
FRAMELAYER-234
 70
     0
 62
     7
  6
Continuous
370
    -3
390
F
  0
LAYER
  5
23B
330
2
100
AcDbSymbolTableRecord
100
AcDbLayerTableRecord
  2
FRAMELAYER-235
 70
     0
 62
     7
  6
Continuous
370
    -3
390
F
  0
LAYER
  5
23C
330
2
100
AcDbSymbolTableRecord
100
AcDbLayerTableRecord
  2
FRAMELAYER-236
 70
     0
 62
     7
  6
Continuous
370
    -3
390
F
  0
LAYER
  5
23D
330
2
100
AcDbSymbolTableRecord
100
AcDbLayerTableRecord
  2
FRAMELAYER-237
 70
     0
 62
     7
  6
Continuous
370
    -3
390
F
  0
LAYER
  5
23E
330
2
100
AcDbSymbolTableRecord
100
AcDbLayerTableRecord
  2
FRAMELAYER-238
 70
     0
 62
     7
  6
Continuous
370
    -3
390
F
  0
LAYER
  5
23F
330
2
100
AcDbSymbolTableRecord
100
AcDbLayerTableRecord
  2
FRAMELAYER-239
 70
     0
 62
     7
  6
Continuous
370
    -3
390
F
  0
LAYER
  5
240
330
2
100
AcDbSymbolTableRecord
100
AcDbLayerTableRecord
  2
FRAMELAYER-240
 70
     0
 62
     7
  6
Continuous
370
    -3
390
F
  0
LAYER
  5
241
330
2
100
AcDbSymbolTableRecord
100
AcDbLayerTableRecord
  2
FRAMELAYER-241
 70
     0
 62
     7
  6
Continuous
370
    -3
390
F
  0
LAYER
  5
242
330
2
100
AcDbSymbolTableRecord
100
AcDbLayerTableRecord
  2
FRAMELAYER-242
 70
     0
 62
     7
  6
Continuous
370
    -3
390
F
  0
LAYER
  5
243
330
2
100
AcDbSymbolTableRecord
100
AcDbLayerTableRecord
  2
FRAMELAYER-243
 70
     0
 62
     7
  6
Continuous
370
    -3
390
F
  0
LAYER
  5
244
330
2
100
AcDbSymbolTableRecord
100
AcDbLayerTableRecord
  2
FRAMELAYER-244
 70
     0
 62
     7
  6
Continuous
370
    -3
390
F
  0
LAYER
  5
245
330
2
100
AcDbSymbolTableRecord
100
AcDbLayerTableRecord
  2
FRAMELAYER-245
 70
     0
 62
     7
  6
Continuous
370
    -3
390
F
  0
LAYER
  5
246
330
2
100
AcDbSymbolTableRecord
100
AcDbLayerTableRecord
  2
FRAMELAYER-246
 70
     0
 62
     7
  6
Continuous
370
    -3
390
F
  0
LAYER
  5
247
330
2
100
AcDbSymbolTableRecord
100
AcDbLayerTableRecord
  2
FRAMELAYER-247
 70
     0
 62
     7
  6
Continuous
370
    -3
390
F
  0
LAYER
  5
248
330
2
100
AcDbSymbolTableRecord
100
AcDbLayerTableRecord
  2
FRAMELAYER-248
 70
     0
 62
     7
  6
Continuous
370
    -3
390
F
  0
LAYER
  5
249
330
2
100
AcDbSymbolTableRecord
100
AcDbLayerTableRecord
  2
FRAMELAYER-249
 70
     0
 62
     7
  6
Continuous
370
    -3
390
F
  0
LAYER
  5
24A
330
2
100
AcDbSymbolTableRecord
100
AcDbLayerTableRecord
  2
FRAMELAYER-250
 70
     0
 62
     7
  6
Continuous
370
    -3
390
F
  0
LAYER
  5
24B
330
2
100
AcDbSymbolTableRecord
100
AcDbLayerTableRecord
  2
FRAMELAYER-251
 70
     0
 62
     7
  6
Continuous
370
    -3
390
F
  0
LAYER
  5
24C
330
2
100
AcDbSymbolTableRecord
100
AcDbLayerTableRecord
  2
FRAMELAYER-252
 70
     0
 62
     7
  6
Continuous
370
    -3
390
F
  0
LAYER
  5
24D
330
2
100
AcDbSymbolTableRecord
100
AcDbLayerTableRecord
  2
FRAMELAYER-253
 70
     0
 62
     7
  6
Continuous
370
    -3
390
F
  0
LAYER
  5
24E
330
2
100
AcDbSymbolTableRecord
100
AcDbLayerTableRecord
  2
FRAMELAYER-254
 70
     0
 62
     7
  6
Continuous
370
    -3
390
F
  0
LAYER
  5
24F
330
2
100
AcDbSymbolTableRecord
100
AcDbLayerTableRecord
  2
FRAMELAYER-255
 70
     0
 62
     7
  6
Continuous
370
    -3
390
F
  0
LAYER
  5
250
330
2
100
AcDbSymbolTableRecord
100
AcDbLayerTableRecord
  2
FRAMELAYER-256
 70
     0
 62
     7
  6
Continuous
370
    -3
390
F
  0
ENDTAB
  0
TABLE
  2
STYLE
  5
3
330
0
100
AcDbSymbolTable
 70
     7
  0
STYLE
  5
11
330
3
100
AcDbSymbolTableRecord
100
AcDbTextStyleTableRecord
  2
Standard
 70
     0
 40
0.0
 41
1.0
 50
0.0
 71
     0
 42
2.5
  3
txt
  4

  0
STYLE
  5
31
330
3
100
AcDbSymbolTableRecord
100
AcDbTextStyleTableRecord
  2
STANDARD2
 70
     0
 40
0.0
 41
1.0
 50
0.0
 71
     0
 42
4.0
  3
MS Mincho.ttf
  4

1001
ACAD
1000
MS Mincho
1071
    32785
  0
STYLE
  5
32
330
3
100
AcDbSymbolTableRecord
100
AcDbTextStyleTableRecord
  2
STRING_H
 70
     0
 40
0.0
 41
1.0
 50
0.0
 71
     0
 42
4.0
  3
MS Mincho.ttf
  4

1001
ACAD
1000
MS Mincho
1071
    32785
  0
STYLE
  5
33
330
3
100
AcDbSymbolTableRecord
100
AcDbTextStyleTableRecord
  2
STRING_H_ITALIC
 70
     0
 40
0.0
 41
1.0
 50
15.0
 71
     0
 42
4.0
  3
MS Mincho.ttf
  4

1001
ACAD
1000
MS Mincho
1071
    32785
  0
STYLE
  5
34
330
3
100
AcDbSymbolTableRecord
100
AcDbTextStyleTableRecord
  2
STRING_V
 70
     0
 40
0.0
 41
1.0
 50
0.0
 71
     0
 42
4.0
  3
@MS Mincho.ttf
  4

1001
ACAD
1000
@MS Mincho
1071
    32785
  0
STYLE
  5
35
330
3
100
AcDbSymbolTableRecord
100
AcDbTextStyleTableRecord
  2
STRING_V_ITALIC
 70
     0
 40
0.0
 41
1.0
 50
15.0
 71
     0
 42
4.0
  3
@MS Mincho.ttf
  4

1001
ACAD
1000
@MS Mincho
1071
    32785
  0
STYLE
  5
36
330
3
100
AcDbSymbolTableRecord
100
AcDbTextStyleTableRecord
  2

 70
     1
 40
0.0
 41
1.0
 50
0.0
 71
     0
 42
0.2
  3
ltypeshp.shx
  4

  0
ENDTAB
  0
TABLE
  2
VIEW
  5
6
330
0
100
AcDbSymbolTable
 70
     0
  0
ENDTAB
  0
TABLE
  2
UCS
  5
7
330
0
100
AcDbSymbolTable
 70
     0
  0
ENDTAB
  0
TABLE
  2
APPID
  5
9
330
0
100
AcDbSymbolTable
 70
     1
  0
APPID
  5
12
330
9
100
AcDbSymbolTableRecord
100
AcDbRegAppTableRecord
  2
ACAD
 70
     0
  0
ENDTAB
  0
TABLE
  2
DIMSTYLE
  5
A
330
0
100
AcDbSymbolTable
 70
     2
100
AcDbDimStyleTable
  0
DIMSTYLE
105
27
330
A
100
AcDbSymbolTableRecord
100
AcDbDimStyleTableRecord
  2
ISO-25
 70
     0
 41
2.5
 42
0.625
 43
3.75
 44
1.25
 73
     0
 74
     0
 77
     1
 78
     8
140
2.5
141
2.5
143
0.03937007874016
147
0.625
171
     3
172
     1
271
     2
272
     2
274
     3
283
     0
284
     8
340
11
  0
DIMSTYLE
105
251
330
A
100
AcDbSymbolTableRecord
100
AcDbDimStyleTableRecord
  2
DIO_DIMSTYLE
 70
     0
 41
2.0
 42
1.0
 43
3.75
 44
1.0
 45
1.0
 73
     0
 74
     0
 77
     1
 78
     8
 79
     2
140
3.0
141
2.5
143
0.03937007874016
147
0.5
171
     3
172
     1
173
     1
271
     0
272
     0
274
     3
283
     0
284
     8
288
     1
289
     0
340
31
  0
ENDTAB
  0
TABLE
  2
BLOCK_RECORD
  5
1
330
0
100
AcDbSymbolTable
 70
     2
  0
BLOCK_RECORD
  5
1F
330
1
100
AcDbSymbolTableRecord
100
AcDbBlockTableRecord
  2
*Model_Space
340
22
  0
BLOCK_RECORD
  5
1B
330
1
100
AcDbSymbolTableRecord
100
AcDbBlockTableRecord
  2
*Paper_Space
340
1E
  0
BLOCK_RECORD
  5
23
330
1
100
AcDbSymbolTableRecord
100
AcDbBlockTableRecord
  2
*Paper_Space0
340
26
  0
BLOCK_RECORD
  5
266
330
1
100
AcDbSymbolTableRecord
100
AcDbBlockTableRecord
  2
DIO_POINT
340
0
102
{BLKREFS
331
26D
331
27C
331
27D
331
27E
331
284
331
285
331
299
331
29B
331
2A8
331
2AA
331
2AB
331
2AC
331
2AD
331
2B1
331
2B3
331
2B5
331
2CD
331
2D2
331
2D3
331
2DF
102
}
  0
ENDTAB
  0
ENDSEC
  0
SECTION
  2
BLOCKS
  0
BLOCK
  5
20
330
1F
100
AcDbEntity
  8
0
100
AcDbBlockBegin
  2
*Model_Space
 70
     0
 71
     0
 10
0.0
 20
0.0
 30
0.0
  3
*Model_Space
  1

  0
ENDBLK
  5
21
330
1F
100
AcDbEntity
  8
0
100
AcDbBlockEnd
  0
BLOCK
  5
1C
330
1B
100
AcDbEntity
 67
     1
  8
0
100
AcDbBlockBegin
  2
*Paper_Space
 70
     0
 71
     0
 10
0.0
 20
0.0
 30
0.0
  3
*Paper_Space
  1

  0
ENDBLK
  5
1D
330
1B
100
AcDbEntity
 67
     1
  8
0
100
AcDbBlockEnd
  0
BLOCK
  5
24
330
23
100
AcDbEntity
  8
0
100
AcDbBlockBegin
  2
*Paper_Space0
 70
     0
 71
     0
 10
0.0
 20
0.0
 30
0.0
  3
*Paper_Space0
  1

  0
ENDBLK
  5
25
330
23
100
AcDbEntity
  8
0
100
AcDbBlockEnd
  0
BLOCK
  5
267
330
266
100
AcDbEntity
  8
0
100
AcDbBlockBegin
  2
DIO_POINT
 70
     0
 71
     0
 10
0.0
 20
0.0
 30
0.0
  3
DIO_POINT
  1

  0
POLYLINE
  5
269
330
266
100
AcDbEntity
  8
0
  6
Continuous
 62
     0
100
AcDb2dPolyline
 66
     1
 10
0.0
 20
0.0
 30
0.0
 70
     1
 40
0.5
 41
0.5
  0
VERTEX
  5
26A
330
269
100
AcDbEntity
  8
0
  6
Continuous
 62
     0
100
AcDbVertex
100
AcDb2dVertex
 10
-0.25
 20
0.0
 30
0.0
 42
0.9999999999999999
  0
VERTEX
  5
26B
330
269
100
AcDbEntity
  8
0
  6
Continuous
 62
     0
100
AcDbVertex
100
AcDb2dVertex
 10
0.25
 20
0.0
 30
0.0
 42
0.9999999999999999
  0
SEQEND
  5
26C
330
269
100
AcDbEntity
  8
0
  6
Continuous
 62
     0
  0
ENDBLK
  5
268
330
266
100
AcDbEntity
  8
0
100
AcDbBlockEnd
  0
ENDSEC
  0
SECTION
  2
ENTITIES
  0
LINE
  5
252
330
1F
100
AcDbEntity
  8
LAYER-001
  6
Continuous
 62
     1
100
AcDbLine
 10
-200.0
 20
138.5
 30
0.0
 11
200.0
 21
138.5
 31
0.0
  0
LINE
  5
253
330
1F
100
AcDbEntity
  8
LAYER-001
  6
Continuous
 62
     1
100
AcDbLine
 10
200.0
 20
138.5
 30
0.0
 11
200.0
 21
-139.0
 31
0.0
  0
LINE
  5
254
330
1F
100
AcDbEntity
  8
LAYER-001
  6
Continuous
 62
     1
100
AcDbLine
 10
200.0
 20
-139.0
 30
0.0
 11
-200.0
 21
-139.0
 31
0.0
  0
LINE
  5
255
330
1F
100
AcDbEntity
  8
LAYER-001
  6
Continuous
 62
     1
100
AcDbLine
 10
-200.0
 20
-139.0
 30
0.0
 11
-200.0
 21
138.5
 31
0.0
  0
LINE
  5
256
330
1F
100
AcDbEntity
  8
LAYER-001
  6
Continuous
 62
     1
100
AcDbLine
 10
-100.0
 20
138.5
 30
0.0
 11
-100.0
 21
-139.0
 31
0.0
  0
LINE
  5
257
330
1F
100
AcDbEntity
  8
LAYER-001
  6
Continuous
 62
     1
100
AcDbLine
 10
0.0
 20
-139.0
 30
0.0
 11
0.0
 21
138.5
 31
0.0
  0
LINE
  5
258
330
1F
100
AcDbEntity
  8
LAYER-001
  6
Continuous
 62
     1
100
AcDbLine
 10
100.0
 20
138.5
 30
0.0
 11
100.0
 21
-139.0
 31
0.0
  0
LINE
  5
259
330
1F
100
AcDbEntity
  8
LAYER-001
  6
Continuous
 62
     1
100
AcDbLine
 10
-200.0
 20
128.5
 30
0.0
 11
200.0
 21
128.5
 31
0.0
  0
LINE
  5
25A
330
1F
100
AcDbEntity
  8
LAYER-001
  6
Continuous
 62
     1
100
AcDbLine
 10
-200.0
 20
1.0
 30
0.0
 11
200.0
 21
1.0
 31
0.0
  0
LINE
  5
25B
330
1F
100
AcDbEntity
  8
LAYER-001
  6
Continuous
 62
     1
100
AcDbLine
 10
-200.0
 20
-9.0
 30
0.0
 11
200.0
 21
-9.0
 31
0.0
  0
LINE
  5
25D
102
{ACAD_REACTORS
330
25C
102
}
330
1F
100
AcDbEntity
  8
LAYER-001
  6
HIDDEN
 62
     6
100
AcDbLine
 10
130.0
 20
18.5
 30
0.0
 11
130.0
 21
8.5
 31
0.0
  0
LINE
  5
25E
102
{ACAD_REACTORS
330
25C
102
}
330
1F
100
AcDbEntity
  8
LAYER-001
  6
Continuous
 62
     6
100
AcDbLine
 10
129.464101615
 20
10.5
 30
0.0
 11
130.0
 21
8.5
 31
0.0
  0
LINE
  5
25F
102
{ACAD_REACTORS
330
25C
102
}
330
1F
100
AcDbEntity
  8
LAYER-001
  6
Continuous
 62
     6
100
AcDbLine
 10
130.535898385
 20
10.5
 30
0.0
 11
130.0
 21
8.5
 31
0.0
  0
LINE
  5
260
330
1F
100
AcDbEntity
  8
LAYER-001
  6
Continuous
 62
     5
100
AcDbLine
 10
132.5
 20
64.5
 30
0.0
 11
147.5
 21
64.5
 31
0.0
  0
LINE
  5
261
330
1F
100
AcDbEntity
  8
LAYER-001
  6
Continuous
 62
     5
100
AcDbLine
 10
145.0
 20
116.5
 30
0.0
 11
155.0
 21
116.5
 31
0.0
  0
LINE
  5
263
102
{ACAD_REACTORS
330
262
102
}
330
1F
100
AcDbEntity
  8
LAYER-001
  6
HIDDEN
 62
     6
100
AcDbLine
 10
150.0
 20
111.0
 30
0.0
 11
150.0
 21
112.25
 31
0.0
  0
LINE
  5
264
102
{ACAD_REACTORS
330
262
102
}
330
1F
100
AcDbEntity
  8
LAYER-001
  6
Continuous
 62
     6
100
AcDbLine
 10
149.464101615
 20
113.0
 30
0.0
 11
150.0
 21
111.0
 31
0.0
  0
LINE
  5
265
102
{ACAD_REACTORS
330
262
102
}
330
1F
100
AcDbEntity
  8
LAYER-001
  6
Continuous
 62
     6
100
AcDbLine
 10
150.535898385
 20
113.0
 30
0.0
 11
150.0
 21
111.0
 31
0.0
  0
INSERT
  5
26D
330
1F
100
AcDbEntity
  8
LAYER-018
  6
Continuous
 62
     6
100
AcDbBlockReference
  2
DIO_POINT
 10
155.0
 20
13.5
 30
0.0
  0
LINE
  5
26E
330
1F
100
AcDbEntity
  8
LAYER-001
  6
Continuous
 62
     1
100
AcDbLine
 10
156.0
 20
51.0
 30
0.0
 11
159.0
 21
51.0
 31
0.0
  0
LINE
  5
26F
330
1F
100
AcDbEntity
  8
LAYER-001
  6
Continuous
 62
     1
100
AcDbLine
 10
156.5
 20
50.5
 30
0.0
 11
158.5
 21
50.5
 31
0.0
  0
LINE
  5
270
330
1F
100
AcDbEntity
  8
LAYER-001
  6
Continuous
 62
     1
100
AcDbLine
 10
157.0
 20
50.0
 30
0.0
 11
158.0
 21
50.0
 31
0.0
  0
LINE
  5
271
330
1F
100
AcDbEntity
  8
LAYER-001
  6
Continuous
 62
     5
100
AcDbLine
 10
123.5
 20
4.0
 30
0.0
 11
136.5
 21
4.0
 31
0.0
  0
LINE
  5
273
102
{ACAD_REACTORS
330
272
102
}
330
1F
100
AcDbEntity
  8
LAYER-001
  6
HIDDEN
 62
     6
100
AcDbLine
 10
32.5
 20
18.5
 30
0.0
 11
32.5
 21
8.5
 31
0.0
  0
LINE
  5
274
102
{ACAD_REACTORS
330
272
102
}
330
1F
100
AcDbEntity
  8
LAYER-001
  6
Continuous
 62
     6
100
AcDbLine
 10
31.964101615
 20
10.5
 30
0.0
 11
32.5
 21
8.5
 31
0.0
  0
LINE
  5
275
102
{ACAD_REACTORS
330
272
102
}
330
1F
100
AcDbEntity
  8
LAYER-001
  6
Continuous
 62
     6
100
AcDbLine
 10
33.035898385
 20
10.5
 30
0.0
 11
32.5
 21
8.5
 31
0.0
  0
LINE
  5
276
330
1F
100
AcDbEntity
  8
LAYER-001
  6
Continuous
 62
     5
100
AcDbLine
 10
35.0
 20
64.5
 30
0.0
 11
50.0
 21
64.5
 31
0.0
  0
LINE
  5
277
330
1F
100
AcDbEntity
  8
LAYER-001
  6
Continuous
 62
     5
100
AcDbLine
 10
47.5
 20
116.5
 30
0.0
 11
57.5
 21
116.5
 31
0.0
  0
LINE
  5
279
102
{ACAD_REACTORS
330
278
102
}
330
1F
100
AcDbEntity
  8
LAYER-001
  6
HIDDEN
 62
     6
100
AcDbLine
 10
52.5
 20
110.25
 30
0.0
 11
52.5
 21
111.5
 31
0.0
  0
LINE
  5
27A
102
{ACAD_REACTORS
330
278
102
}
330
1F
100
AcDbEntity
  8
LAYER-001
  6
Continuous
 62
     6
100
AcDbLine
 10
51.964101615
 20
112.25
 30
0.0
 11
52.5
 21
110.25
 31
0.0
  0
LINE
  5
27B
102
{ACAD_REACTORS
330
278
102
}
330
1F
100
AcDbEntity
  8
LAYER-001
  6
Continuous
 62
     6
100
AcDbLine
 10
53.035898385
 20
112.25
 30
0.0
 11
52.5
 21
110.25
 31
0.0
  0
INSERT
  5
27C
330
1F
100
AcDbEntity
  8
LAYER-018
  6
Continuous
 62
     6
100
AcDbBlockReference
  2
DIO_POINT
 10
52.5
 20
68.5
 30
0.0
  0
INSERT
  5
27D
330
1F
100
AcDbEntity
  8
LAYER-018
  6
Continuous
 62
     6
100
AcDbBlockReference
  2
DIO_POINT
 10
52.5
 20
38.5
 30
0.0
  0
INSERT
  5
27E
330
1F
100
AcDbEntity
  8
LAYER-018
  6
Continuous
 62
     6
100
AcDbBlockReference
  2
DIO_POINT
 10
57.5
 20
13.5
 30
0.0
  0
LINE
  5
27F
330
1F
100
AcDbEntity
  8
LAYER-001
  6
Continuous
 62
     5
100
AcDbLine
 10
26.0
 20
4.0
 30
0.0
 11
39.0
 21
4.0
 31
0.0
  0
LINE
  5
280
330
1F
100
AcDbEntity
  8
LAYER-001
  6
Continuous
 62
     5
100
AcDbLine
 10
-166.25
 20
61.5
 30
0.0
 11
-153.75
 21
61.5
 31
0.0
  0
LINE
  5
281
330
1F
100
AcDbEntity
  8
LAYER-001
  6
Continuous
 62
     5
100
AcDbLine
 10
-165.0
 20
44.5
 30
0.0
 11
-155.0
 21
44.5
 31
0.0
  0
LINE
  5
282
330
1F
100
AcDbEntity
  8
LAYER-001
  6
Continuous
 62
     5
100
AcDbLine
 10
-156.5
 20
4.0
 30
0.0
 11
-143.5
 21
4.0
 31
0.0
  0
LINE
  5
283
330
1F
100
AcDbEntity
  8
LAYER-001
  6
Continuous
 62
     5
100
AcDbLine
 10
-155.0
 20
116.5
 30
0.0
 11
-145.0
 21
116.5
 31
0.0
  0
INSERT
  5
284
330
1F
100
AcDbEntity
  8
LAYER-018
  6
Continuous
 62
     6
100
AcDbBlockReference
  2
DIO_POINT
 10
-150.0
 20
76.0
 30
0.0
  0
INSERT
  5
285
330
1F
100
AcDbEntity
  8
LAYER-018
  6
Continuous
 62
     6
100
AcDbBlockReference
  2
DIO_POINT
 10
-150.0
 20
41.0
 30
0.0
  0
LINE
  5
286
330
1F
100
AcDbEntity
  8
LAYER-001
  6
Continuous
 62
     5
100
AcDbLine
 10
-72.5
 20
59.5
 30
0.0
 11
-62.5
 21
59.5
 31
0.0
  0
LINE
  5
287
330
1F
100
AcDbEntity
  8
LAYER-001
  6
Continuous
 62
     5
100
AcDbLine
 10
-72.5
 20
52.0
 30
0.0
 11
-62.5
 21
52.0
 31
0.0
  0
LINE
  5
288
330
1F
100
AcDbEntity
  8
LAYER-001
  6
Continuous
 62
     5
100
AcDbLine
 10
-72.5
 20
44.5
 30
0.0
 11
-62.5
 21
44.5
 31
0.0
  0
LINE
  5
289
330
1F
100
AcDbEntity
  8
LAYER-001
  6
Continuous
 62
     5
100
AcDbLine
 10
-66.25
 20
72.0
 30
0.0
 11
-53.75
 21
72.0
 31
0.0
  0
LINE
  5
28A
330
1F
100
AcDbEntity
  8
LAYER-001
  6
Continuous
 62
     5
100
AcDbLine
 10
-64.0
 20
19.0
 30
0.0
 11
-51.0
 21
19.0
 31
0.0
  0
LINE
  5
28C
102
{ACAD_REACTORS
330
28B
102
}
330
1F
100
AcDbEntity
  8
LAYER-001
  6
HIDDEN
 62
     6
100
AcDbLine
 10
-57.5
 20
28.5
 30
0.0
 11
-57.5
 21
23.5
 31
0.0
  0
LINE
  5
28D
102
{ACAD_REACTORS
330
28B
102
}
330
1F
100
AcDbEntity
  8
LAYER-001
  6
Continuous
 62
     6
100
AcDbLine
 10
-58.035898385
 20
25.5
 30
0.0
 11
-57.5
 21
23.5
 31
0.0
  0
LINE
  5
28E
102
{ACAD_REACTORS
330
28B
102
}
330
1F
100
AcDbEntity
  8
LAYER-001
  6
Continuous
 62
     6
100
AcDbLine
 10
-56.964101615
 20
25.5
 30
0.0
 11
-57.5
 21
23.5
 31
0.0
  0
LINE
  5
28F
330
1F
100
AcDbEntity
  8
LAYER-001
  6
Continuous
 62
     5
100
AcDbLine
 10
-52.5
 20
116.5
 30
0.0
 11
-42.5
 21
116.5
 31
0.0
  0
LINE
  5
290
330
1F
100
AcDbEntity
  8
LAYER-001
  6
Continuous
 62
     1
100
AcDbLine
 10
-41.5
 20
56.0
 30
0.0
 11
-38.5
 21
56.0
 31
0.0
  0
LINE
  5
291
330
1F
100
AcDbEntity
  8
LAYER-001
  6
Continuous
 62
     1
100
AcDbLine
 10
-41.0
 20
55.5
 30
0.0
 11
-39.0
 21
55.5
 31
0.0
  0
LINE
  5
292
330
1F
100
AcDbEntity
  8
LAYER-001
  6
Continuous
 62
     1
100
AcDbLine
 10
-40.5
 20
55.0
 30
0.0
 11
-39.5
 21
55.0
 31
0.0
  0
LINE
  5
293
330
1F
100
AcDbEntity
  8
LAYER-001
  6
Continuous
 62
     5
100
AcDbLine
 10
-140.0
 20
-14.5
 30
0.0
 11
-130.0
 21
-14.5
 31
0.0
  0
LINE
  5
294
330
1F
100
AcDbEntity
  8
LAYER-001
  6
Continuous
 62
     5
100
AcDbLine
 10
-168.75
 20
-74.0
 30
0.0
 11
-152.5
 21
-74.0
 31
0.0
  0
LINE
  5
296
102
{ACAD_REACTORS
330
295
102
}
330
1F
100
AcDbEntity
  8
LAYER-001
  6
Continuous
 62
     6
100
AcDbLine
 10
-135.0
 20
-25.25
 30
0.0
 11
-135.0
 21
-21.68356643356644
 31
0.0
  0
LINE
  5
297
102
{ACAD_REACTORS
330
295
102
}
330
1F
100
AcDbEntity
  8
LAYER-001
  6
Continuous
 62
     6
100
AcDbLine
 10
-135.535898385
 20
-23.25
 30
0.0
 11
-135.0
 21
-25.25
 31
0.0
  0
LINE
  5
298
102
{ACAD_REACTORS
330
295
102
}
330
1F
100
AcDbEntity
  8
LAYER-001
  6
Continuous
 62
     6
100
AcDbLine
 10
-134.464101615
 20
-23.25
 30
0.0
 11
-135.0
 21
-25.25
 31
0.0
  0
INSERT
  5
299
330
1F
100
AcDbEntity
  8
LAYER-018
  6
Continuous
 62
     6
100
AcDbBlockReference
  2
DIO_POINT
 10
-135.0
 20
-80.25
 30
0.0
  0
LINE
  5
29A
330
1F
100
AcDbEntity
  8
LAYER-001
  6
Continuous
 62
     5
100
AcDbLine
 10
-153.75
 20
-134.5
 30
0.0
 11
-141.25
 21
-134.5
 31
0.0
  0
INSERT
  5
29B
330
1F
100
AcDbEntity
  8
LAYER-018
  6
Continuous
 62
     6
100
AcDbBlockReference
  2
DIO_POINT
 10
-135.0
 20
-110.25
 30
0.0
  0
LINE
  5
29C
330
1F
100
AcDbEntity
  8
LAYER-001
  6
Continuous
 62
     5
100
AcDbLine
 10
-57.5
 20
-15.75
 30
0.0
 11
-47.5
 21
-15.75
 31
0.0
  0
LINE
  5
29E
102
{ACAD_REACTORS
330
29D
102
}
330
1F
100
AcDbEntity
  8
LAYER-001
  6
Continuous
 62
     6
100
AcDbLine
 10
-52.5
 20
-26.5
 30
0.0
 11
-52.5
 21
-22.93356643356644
 31
0.0
  0
LINE
  5
29F
102
{ACAD_REACTORS
330
29D
102
}
330
1F
100
AcDbEntity
  8
LAYER-001
  6
Continuous
 62
     6
100
AcDbLine
 10
-53.035898385
 20
-24.5
 30
0.0
 11
-52.5
 21
-26.5
 31
0.0
  0
LINE
  5
2A0
102
{ACAD_REACTORS
330
29D
102
}
330
1F
100
AcDbEntity
  8
LAYER-001
  6
Continuous
 62
     6
100
AcDbLine
 10
-51.964101615
 20
-24.5
 30
0.0
 11
-52.5
 21
-26.5
 31
0.0
  0
LINE
  5
2A1
330
1F
100
AcDbEntity
  8
LAYER-001
  6
Continuous
 62
     5
100
AcDbLine
 10
-87.5
 20
-75.5
 30
0.0
 11
-71.25
 21
-75.5
 31
0.0
  0
LINE
  5
2A2
330
1F
100
AcDbEntity
  8
LAYER-001
  6
Continuous
 62
     1
100
AcDbLine
 10
-37.5
 20
-91.5
 30
0.0
 11
-34.0
 21
-91.5
 31
0.0
  0
LINE
  5
2A3
330
1F
100
AcDbEntity
  8
LAYER-001
  6
Continuous
 62
     1
100
AcDbLine
 10
-35.0
 20
-94.0
 30
0.0
 11
-33.0
 21
-94.0
 31
0.0
  0
LINE
  5
2A4
330
1F
100
AcDbEntity
  8
LAYER-001
  6
Continuous
 62
     1
100
AcDbLine
 10
-34.5
 20
-94.5
 30
0.0
 11
-33.5
 21
-94.5
 31
0.0
  0
LINE
  5
2A5
330
1F
100
AcDbEntity
  8
LAYER-001
  6
Continuous
 62
     1
100
AcDbLine
 10
-34.25
 20
-95.0
 30
0.0
 11
-33.75
 21
-95.0
 31
0.0
  0
LINE
  5
2A6
330
1F
100
AcDbEntity
  8
LAYER-001
  6
Continuous
 62
     1
100
AcDbLine
 10
-34.0
 20
-91.5
 30
0.0
 11
-34.0
 21
-94.0
 31
0.0
  0
LINE
  5
2A7
330
1F
100
AcDbEntity
  8
LAYER-001
  6
Continuous
 62
     5
100
AcDbLine
 10
-71.25
 20
-135.75
 30
0.0
 11
-58.75
 21
-135.75
 31
0.0
  0
INSERT
  5
2A8
330
1F
100
AcDbEntity
  8
LAYER-018
  6
Continuous
 62
     6
100
AcDbBlockReference
  2
DIO_POINT
 10
60.0
 20
-46.5
 30
0.0
  0
LINE
  5
2A9
330
1F
100
AcDbEntity
  8
LAYER-001
  6
Continuous
 62
     4
100
AcDbLine
 10
17.0
 20
-58.0
 30
0.0
 11
32.0
 21
-58.0
 31
0.0
  0
INSERT
  5
2AA
330
1F
100
AcDbEntity
  8
LAYER-018
  6
Continuous
 62
     7
100
AcDbBlockReference
  2
DIO_POINT
 10
40.0
 20
-64.0
 30
0.0
  0
INSERT
  5
2AB
330
1F
100
AcDbEntity
  8
LAYER-018
  6
Continuous
 62
     7
100
AcDbBlockReference
  2
DIO_POINT
 10
40.0
 20
-89.0
 30
0.0
  0
INSERT
  5
2AC
330
1F
100
AcDbEntity
  8
LAYER-018
  6
Continuous
 62
     7
100
AcDbBlockReference
  2
DIO_POINT
 10
60.0
 20
-93.0
 30
0.0
  0
INSERT
  5
2AD
330
1F
100
AcDbEntity
  8
LAYER-018
  6
Continuous
 62
     7
100
AcDbBlockReference
  2
DIO_POINT
 10
35.0
 20
-119.0
 30
0.0
  0
LINE
  5
2AE
330
1F
100
AcDbEntity
  8
LAYER-001
  6
Continuous
 62
     4
100
AcDbLine
 10
52.5
 20
-129.5
 30
0.0
 11
67.5
 21
-129.5
 31
0.0
  0
LINE
  5
2AF
330
1F
100
AcDbEntity
  8
LAYER-001
  6
Continuous
 62
     4
100
AcDbLine
 10
55.0
 20
-15.0
 30
0.0
 11
65.0
 21
-15.0
 31
0.0
  0
LINE
  5
2B0
330
1F
100
AcDbEntity
  8
LAYER-001
  6
Continuous
 62
     4
100
AcDbLine
 10
155.0
 20
-15.0
 30
0.0
 11
165.0
 21
-15.0
 31
0.0
  0
INSERT
  5
2B1
330
1F
100
AcDbEntity
  8
LAYER-018
  6
Continuous
 62
     6
100
AcDbBlockReference
  2
DIO_POINT
 10
160.0
 20
-46.5
 30
0.0
  0
LINE
  5
2B2
330
1F
100
AcDbEntity
  8
LAYER-001
  6
Continuous
 62
     4
100
AcDbLine
 10
117.0
 20
-58.0
 30
0.0
 11
132.0
 21
-58.0
 31
0.0
  0
INSERT
  5
2B3
330
1F
100
AcDbEntity
  8
LAYER-018
  6
Continuous
 62
     7
100
AcDbBlockReference
  2
DIO_POINT
 10
160.0
 20
-93.0
 30
0.0
  0
LINE
  5
2B4
330
1F
100
AcDbEntity
  8
LAYER-001
  6
Continuous
 62
     4
100
AcDbLine
 10
152.5
 20
-129.5
 30
0.0
 11
167.5
 21
-129.5
 31
0.0
  0
INSERT
  5
2B5
330
1F
100
AcDbEntity
  8
LAYER-018
  6
Continuous
 62
     7
100
AcDbBlockReference
  2
DIO_POINT
 10
135.0
 20
-119.0
 30
0.0
  0
ARC
  5
2B6
330
1F
100
AcDbEntity
  8
LAYER-141
  6
Continuous
 62
     6
100
AcDbCircle
 10
-42.5
 20
54.75
 30
0.0
 40
1.25
100
AcDbArc
 50
90.0
 51
270.0
  0
ARC
  5
2B7
330
1F
100
AcDbEntity
  8
LAYER-141
  6
Continuous
 62
     6
100
AcDbCircle
 10
-42.5
 20
57.25
 30
0.0
 40
1.25
100
AcDbArc
 50
90.0
 51
270.0
  0
ARC
  5
2B8
330
1F
100
AcDbEntity
  8
LAYER-141
  6
Continuous
 62
     6
100
AcDbCircle
 10
-42.5
 20
52.25
 30
0.0
 40
1.25
100
AcDbArc
 50
90.0
 51
270.0
  0
ARC
  5
2B9
330
1F
100
AcDbEntity
  8
LAYER-141
  6
Continuous
 62
     6
100
AcDbCircle
 10
-47.5
 20
67.25
 30
0.0
 40
1.25
100
AcDbArc
 50
270.0
 51
90.0
  0
ARC
  5
2BA
330
1F
100
AcDbEntity
  8
LAYER-141
  6
Continuous
 62
     6
100
AcDbCircle
 10
-47.5
 20
64.75
 30
0.0
 40
1.25
100
AcDbArc
 50
270.0
 51
90.0
  0
ARC
  5
2BB
330
1F
100
AcDbEntity
  8
LAYER-141
  6
Continuous
 62
     6
100
AcDbCircle
 10
-47.5
 20
62.25
 30
0.0
 40
1.25
100
AcDbArc
 50
270.0
 51
90.0
  0
ARC
  5
2BC
330
1F
100
AcDbEntity
  8
LAYER-141
  6
Continuous
 62
     6
100
AcDbCircle
 10
-47.5
 20
59.75
 30
0.0
 40
1.25
100
AcDbArc
 50
270.0
 51
90.0
  0
ARC
  5
2BD
330
1F
100
AcDbEntity
  8
LAYER-141
  6
Continuous
 62
     6
100
AcDbCircle
 10
-47.5
 20
57.25
 30
0.0
 40
1.25
100
AcDbArc
 50
270.0
 51
90.0
  0
ARC
  5
2BE
330
1F
100
AcDbEntity
  8
LAYER-141
  6
Continuous
 62
     6
100
AcDbCircle
 10
-47.5
 20
54.75
 30
0.0
 40
1.25
100
AcDbArc
 50
270.0
 51
90.0
  0
ARC
  5
2BF
330
1F
100
AcDbEntity
  8
LAYER-141
  6
Continuous
 62
     6
100
AcDbCircle
 10
-47.5
 20
52.25
 30
0.0
 40
1.25
100
AcDbArc
 50
270.0
 51
90.0
  0
ARC
  5
2C0
330
1F
100
AcDbEntity
  8
LAYER-141
  6
Continuous
 62
     6
100
AcDbCircle
 10
-47.5
 20
49.75
 30
0.0
 40
1.25
100
AcDbArc
 50
270.0
 51
90.0
  0
ARC
  5
2C1
330
1F
100
AcDbEntity
  8
LAYER-141
  6
Continuous
 62
     6
100
AcDbCircle
 10
-47.5
 20
69.75
 30
0.0
 40
1.25
100
AcDbArc
 50
270.0
 51
90.0
  0
ARC
  5
2C2
330
1F
100
AcDbEntity
  8
LAYER-141
  6
Continuous
 62
     6
100
AcDbCircle
 10
-47.5
 20
47.25
 30
0.0
 40
1.25
100
AcDbArc
 50
270.0
 51
90.0
  0
ARC
  5
2C3
330
1F
100
AcDbEntity
  8
LAYER-141
  6
Continuous
 62
     6
100
AcDbCircle
 10
-42.5
 20
64.75
 30
0.0
 40
1.25
100
AcDbArc
 50
90.0
 51
270.0
  0
ARC
  5
2C4
330
1F
100
AcDbEntity
  8
LAYER-141
  6
Continuous
 62
     6
100
AcDbCircle
 10
-42.5
 20
59.75
 30
0.0
 40
1.25
100
AcDbArc
 50
90.0
 51
270.0
  0
ARC
  5
2C5
330
1F
100
AcDbEntity
  8
LAYER-141
  6
Continuous
 62
     6
100
AcDbCircle
 10
-42.5
 20
62.25
 30
0.0
 40
1.25
100
AcDbArc
 50
90.0
 51
270.0
  0
LINE
  5
2C6
330
1F
100
AcDbEntity
  8
LAYER-138
  6
Continuous
 62
     1
100
AcDbLine
 10
-40.0
 20
58.5
 30
0.0
 11
-40.0
 21
56.0
 31
0.0
  0
LINE
  5
2C7
330
1F
100
AcDbEntity
  8
LAYER-138
  6
Continuous
 62
     6
100
AcDbLine
 10
-42.5
 20
66.0
 30
0.0
 11
-35.0
 21
66.0
 31
0.0
  0
LINE
  5
2C8
330
1F
100
AcDbEntity
  8
LAYER-138
  6
Continuous
 62
     6
100
AcDbLine
 10
-35.0
 20
51.0
 30
0.0
 11
-42.5
 21
51.0
 31
0.0
  0
LINE
  5
2C9
330
1F
100
AcDbEntity
  8
LAYER-138
  6
Continuous
 62
     1
100
AcDbLine
 10
-42.5
 20
58.5
 30
0.0
 11
-40.0
 21
58.5
 31
0.0
  0
LINE
  5
2CA
330
1F
100
AcDbEntity
  8
LAYER-138
  6
Continuous
 62
     6
100
AcDbLine
 10
-47.5
 20
61.0
 30
0.0
 11
-51.5
 21
61.0
 31
0.0
  0
LINE
  5
2CB
330
1F
100
AcDbEntity
  8
LAYER-138
  6
Continuous
 62
     6
100
AcDbLine
 10
-47.5
 20
53.5
 30
0.0
 11
-51.5
 21
53.5
 31
0.0
  0
LINE
  5
2CC
330
1F
100
AcDbEntity
  8
LAYER-138
  6
Continuous
 62
     6
100
AcDbLine
 10
-47.5
 20
46.0
 30
0.0
 11
-51.5
 21
46.0
 31
0.0
  0
INSERT
  5
2CD
330
1F
100
AcDbEntity
  8
LAYER-018
  6
Continuous
 62
     6
100
AcDbBlockReference
  2
DIO_POINT
 10
-147.5
 20
-116.5
 30
0.0
  0
LINE
  5
2CF
102
{ACAD_REACTORS
330
2CE
102
}
330
1F
100
AcDbEntity
  8
LAYER-001
  6
Continuous
 62
     6
100
AcDbLine
 10
-147.5
 20
-126.5
 30
0.0
 11
-147.5
 21
-122.9335664335665
 31
0.0
  0
LINE
  5
2D0
102
{ACAD_REACTORS
330
2CE
102
}
330
1F
100
AcDbEntity
  8
LAYER-001
  6
Continuous
 62
     6
100
AcDbLine
 10
-148.035898385
 20
-124.5
 30
0.0
 11
-147.5
 21
-126.5
 31
0.0
  0
LINE
  5
2D1
102
{ACAD_REACTORS
330
2CE
102
}
330
1F
100
AcDbEntity
  8
LAYER-001
  6
Continuous
 62
     6
100
AcDbLine
 10
-146.964101615
 20
-124.5
 30
0.0
 11
-147.5
 21
-126.5
 31
0.0
  0
INSERT
  5
2D2
330
1F
100
AcDbEntity
  8
LAYER-018
  6
Continuous
 62
     6
100
AcDbBlockReference
  2
DIO_POINT
 10
-52.5
 20
-44.0
 30
0.0
  0
INSERT
  5
2D3
330
1F
100
AcDbEntity
  8
LAYER-018
  6
Continuous
 62
     6
100
AcDbBlockReference
  2
DIO_POINT
 10
-65.0
 20
-109.0
 30
0.0
  0
LINE
  5
2D5
102
{ACAD_REACTORS
330
2D4
102
}
330
1F
100
AcDbEntity
  8
LAYER-001
  6
Continuous
 62
     6
100
AcDbLine
 10
-65.0
 20
-126.5
 30
0.0
 11
-65.0
 21
-122.9335664335664
 31
0.0
  0
LINE
  5
2D6
102
{ACAD_REACTORS
330
2D4
102
}
330
1F
100
AcDbEntity
  8
LAYER-001
  6
Continuous
 62
     6
100
AcDbLine
 10
-65.535898385
 20
-124.5
 30
0.0
 11
-65.0
 21
-126.5
 31
0.0
  0
LINE
  5
2D7
102
{ACAD_REACTORS
330
2D4
102
}
330
1F
100
AcDbEntity
  8
LAYER-001
  6
Continuous
 62
     6
100
AcDbLine
 10
-64.464101615
 20
-124.5
 30
0.0
 11
-65.0
 21
-126.5
 31
0.0
  0
ARC
  5
2D8
330
1F
100
AcDbEntity
  8
LAYER-120
  6
Continuous
 62
     6
100
AcDbCircle
 10
-37.5
 20
-87.75
 30
0.0
 40
1.25
100
AcDbArc
 50
90.0
 51
270.0
  0
ARC
  5
2D9
330
1F
100
AcDbEntity
  8
LAYER-120
  6
Continuous
 62
     6
100
AcDbCircle
 10
-37.5
 20
-90.25
 30
0.0
 40
1.25
100
AcDbArc
 50
90.0
 51
270.0
  0
ARC
  5
2DA
330
1F
100
AcDbEntity
  8
LAYER-120
  6
Continuous
 62
     6
100
AcDbCircle
 10
-37.5
 20
-92.75
 30
0.0
 40
1.25
100
AcDbArc
 50
90.0
 51
270.0
  0
ARC
  5
2DB
330
1F
100
AcDbEntity
  8
LAYER-120
  6
Continuous
 62
     6
100
AcDbCircle
 10
-37.5
 20
-95.25
 30
0.0
 40
1.25
100
AcDbArc
 50
90.0
 51
270.0
  0
ARC
  5
2DC
330
1F
100
AcDbEntity
  8
LAYER-120
  6
Continuous
 62
     6
100
AcDbCircle
 10
-37.5
 20
-97.75
 30
0.0
 40
1.25
100
AcDbArc
 50
90.0
 51
270.0
  0
LINE
  5
2DD
330
1F
100
AcDbEntity
  8
LAYER-120
  6
Continuous
 62
     6
100
AcDbLine
 10
-25.0
 20
-99.0
 30
0.0
 11
-37.5
 21
-99.0
 31
0.0
  0
LINE
  5
2DE
330
1F
100
AcDbEntity
  8
LAYER-120
  6
Continuous
 62
     6
100
AcDbLine
 10
-25.0
 20
-86.5
 30
0.0
 11
-37.5
 21
-86.5
 31
0.0
  0
INSERT
  5
2DF
330
1F
100
AcDbEntity
  8
LAYER-018
  6
Continuous
 62
     6
100
AcDbBlockReference
  2
DIO_POINT
 10
-135.0
 20
-41.5
 30
0.0
  0
CIRCLE
  5
2E1
102
{ACAD_REACTORS
330
2E0
102
}
330
1F
100
AcDbEntity
  8
LAYER-120
  6
Continuous
 62
     1
100
AcDbCircle
 10
140.0
 20
56.0
 30
0.0
 40
1.0
  0
TEXT
  5
2E2
102
{ACAD_REACTORS
330
2E0
102
}
330
1F
100
AcDbEntity
  8
LAYER-210
  6
Continuous
 62
     2
100
AcDbText
 10
141.0
 20
57.0
 30
0.0
 40
2.0
  1
80%
 41
1.3
  7
STRING_H
 11
141.0
 21
57.0
 31
0.0
100
AcDbText
 73
     1
  0
CIRCLE
  5
2E4
102
{ACAD_REACTORS
330
2E3
102
}
330
1F
100
AcDbEntity
  8
LAYER-120
  6
Continuous
 62
     1
100
AcDbCircle
 10
140.0
 20
51.0
 30
0.0
 40
1.0
  0
TEXT
  5
2E5
102
{ACAD_REACTORS
330
2E3
102
}
330
1F
100
AcDbEntity
  8
LAYER-210
  6
Continuous
 62
     2
100
AcDbText
 10
141.0
 20
52.0
 30
0.0
 40
2.0
  1
65%
 41
1.3
  7
STRING_H
 11
141.0
 21
52.0
 31
0.0
100
AcDbText
 73
     1
  0
CIRCLE
  5
2E7
102
{ACAD_REACTORS
330
2E6
102
}
330
1F
100
AcDbEntity
  8
LAYER-120
  6
Continuous
 62
     1
100
AcDbCircle
 10
150.0
 20
88.5
 30
0.0
 40
1.0
  0
TEXT
  5
2E8
102
{ACAD_REACTORS
330
2E6
102
}
330
1F
100
AcDbEntity
  8
LAYER-210
  6
Continuous
 62
     2
100
AcDbText
 10
133.4375
 20
90.5
 30
0.0
 40
2.5
  1
R.S.T
 41
2.0
  7
STRING_H
 72
     1
 11
142.5
 21
90.5
 31
0.0
100
AcDbText
 73
     1
  0
ARC
  5
2EA
102
{ACAD_REACTORS
330
2E9
102
}
330
1F
100
AcDbEntity
  8
LAYER-141
  6
Continuous
 62
     6
100
AcDbCircle
 10
155.0
 20
49.75
 30
0.0
 40
1.25
100
AcDbArc
 50
90.0
 51
270.0
  0
ARC
  5
2EB
102
{ACAD_REACTORS
330
2E9
102
}
330
1F
100
AcDbEntity
  8
LAYER-141
  6
Continuous
 62
     6
100
AcDbCircle
 10
155.0
 20
52.25
 30
0.0
 40
1.25
100
AcDbArc
 50
90.0
 51
270.0
  0
ARC
  5
2EC
102
{ACAD_REACTORS
330
2E9
102
}
330
1F
100
AcDbEntity
  8
LAYER-141
  6
Continuous
 62
     6
100
AcDbCircle
 10
155.0
 20
47.25
 30
0.0
 40
1.25
100
AcDbArc
 50
90.0
 51
270.0
  0
ARC
  5
2ED
102
{ACAD_REACTORS
330
2E9
102
}
330
1F
100
AcDbEntity
  8
LAYER-141
  6
Continuous
 62
     6
100
AcDbCircle
 10
155.0
 20
59.75
 30
0.0
 40
1.25
100
AcDbArc
 50
90.0
 51
270.0
  0
ARC
  5
2EE
102
{ACAD_REACTORS
330
2E9
102
}
330
1F
100
AcDbEntity
  8
LAYER-141
  6
Continuous
 62
     6
100
AcDbCircle
 10
155.0
 20
54.75
 30
0.0
 40
1.25
100
AcDbArc
 50
90.0
 51
270.0
  0
ARC
  5
2EF
102
{ACAD_REACTORS
330
2E9
102
}
330
1F
100
AcDbEntity
  8
LAYER-141
  6
Continuous
 62
     6
100
AcDbCircle
 10
155.0
 20
57.25
 30
0.0
 40
1.25
100
AcDbArc
 50
90.0
 51
270.0
  0
LINE
  5
2F0
102
{ACAD_REACTORS
330
2E9
102
}
330
1F
100
AcDbEntity
  8
LAYER-138
  6
Continuous
 62
     1
100
AcDbLine
 10
157.5
 20
53.5
 30
0.0
 11
157.5
 21
51.0
 31
0.0
  0
LINE
  5
2F1
102
{ACAD_REACTORS
330
2E9
102
}
330
1F
100
AcDbEntity
  8
LAYER-138
  6
Continuous
 62
     6
100
AcDbLine
 10
155.0
 20
61.0
 30
0.0
 11
162.5
 21
61.0
 31
0.0
  0
LINE
  5
2F2
102
{ACAD_REACTORS
330
2E9
102
}
330
1F
100
AcDbEntity
  8
LAYER-138
  6
Continuous
 62
     6
100
AcDbLine
 10
162.5
 20
46.0
 30
0.0
 11
155.0
 21
46.0
 31
0.0
  0
LINE
  5
2F3
102
{ACAD_REACTORS
330
2E9
102
}
330
1F
100
AcDbEntity
  8
LAYER-138
  6
Continuous
 62
     1
100
AcDbLine
 10
155.0
 20
53.5
 30
0.0
 11
157.5
 21
53.5
 31
0.0
  0
ARC
  5
2F4
102
{ACAD_REACTORS
330
2E9
102
}
330
1F
100
AcDbEntity
  8
LAYER-141
  6
Continuous
 62
     6
100
AcDbCircle
 10
150.0
 20
62.25
 30
0.0
 40
1.25
100
AcDbArc
 50
270.0
 51
90.0
  0
ARC
  5
2F5
102
{ACAD_REACTORS
330
2E9
102
}
330
1F
100
AcDbEntity
  8
LAYER-141
  6
Continuous
 62
     6
100
AcDbCircle
 10
150.0
 20
59.75
 30
0.0
 40
1.25
100
AcDbArc
 50
270.0
 51
90.0
  0
ARC
  5
2F6
102
{ACAD_REACTORS
330
2E9
102
}
330
1F
100
AcDbEntity
  8
LAYER-141
  6
Continuous
 62
     6
100
AcDbCircle
 10
150.0
 20
57.25
 30
0.0
 40
1.25
100
AcDbArc
 50
270.0
 51
90.0
  0
ARC
  5
2F7
102
{ACAD_REACTORS
330
2E9
102
}
330
1F
100
AcDbEntity
  8
LAYER-141
  6
Continuous
 62
     6
100
AcDbCircle
 10
150.0
 20
54.75
 30
0.0
 40
1.25
100
AcDbArc
 50
270.0
 51
90.0
  0
ARC
  5
2F8
102
{ACAD_REACTORS
330
2E9
102
}
330
1F
100
AcDbEntity
  8
LAYER-141
  6
Continuous
 62
     6
100
AcDbCircle
 10
150.0
 20
52.25
 30
0.0
 40
1.25
100
AcDbArc
 50
270.0
 51
90.0
  0
ARC
  5
2F9
102
{ACAD_REACTORS
330
2E9
102
}
330
1F
100
AcDbEntity
  8
LAYER-141
  6
Continuous
 62
     6
100
AcDbCircle
 10
150.0
 20
49.75
 30
0.0
 40
1.25
100
AcDbArc
 50
270.0
 51
90.0
  0
ARC
  5
2FA
102
{ACAD_REACTORS
330
2E9
102
}
330
1F
100
AcDbEntity
  8
LAYER-141
  6
Continuous
 62
     6
100
AcDbCircle
 10
150.0
 20
47.25
 30
0.0
 40
1.25
100
AcDbArc
 50
270.0
 51
90.0
  0
ARC
  5
2FB
102
{ACAD_REACTORS
330
2E9
102
}
330
1F
100
AcDbEntity
  8
LAYER-141
  6
Continuous
 62
     6
100
AcDbCircle
 10
150.0
 20
44.75
 30
0.0
 40
1.25
100
AcDbArc
 50
270.0
 51
90.0
  0
CIRCLE
  5
2FD
102
{ACAD_REACTORS
330
2FC
102
}
330
1F
100
AcDbEntity
  8
LAYER-120
  6
Continuous
 62
     1
100
AcDbCircle
 10
150.0
 20
31.0
 30
0.0
 40
1.0
  0
TEXT
  5
2FE
102
{ACAD_REACTORS
330
2FC
102
}
330
1F
100
AcDbEntity
  8
LAYER-210
  6
Continuous
 62
     2
100
AcDbText
 10
151.0
 20
32.0
 30
0.0
 40
2.5
  1
X.Y.Z
 41
2.0
  7
STRING_H
 11
151.0
 21
32.0
 31
0.0
100
AcDbText
 73
     1
  0
LINE
  5
300
102
{ACAD_REACTORS
330
2FF
102
}
330
1F
100
AcDbEntity
  8
LAYER-141
  6
Continuous
 62
     6
100
AcDbLine
 10
159.54
 20
56.34
 30
0.0
 11
162.5
 21
50.0
 31
0.0
  0
LINE
  5
301
102
{ACAD_REACTORS
330
2FF
102
}
330
1F
100
AcDbEntity
  8
LAYER-141
  6
Continuous
 62
     6
100
AcDbLine
 10
162.5
 20
56.0
 30
0.0
 11
162.5
 21
58.5
 31
0.0
  0
ARC
  5
302
102
{ACAD_REACTORS
330
2FF
102
}
330
1F
100
AcDbEntity
  8
LAYER-138
  6
Continuous
 62
     6
100
AcDbCircle
 10
162.5
 20
57.0
 30
0.0
 40
1.0
100
AcDbArc
 50
90.0
 51
270.0
  0
LINE
  5
303
102
{ACAD_REACTORS
330
2FF
102
}
330
1F
100
AcDbEntity
  8
LAYER-141
  6
Continuous
 62
     6
100
AcDbLine
 10
162.5
 20
48.5
 30
0.0
 11
162.5
 21
50.0
 31
0.0
  0
TEXT
  5
304
102
{ACAD_REACTORS
330
2FF
102
}
330
1F
100
AcDbEntity
  8
LAYER-194
  6
Continuous
 62
     2
100
AcDbText
 10
164.5
 20
52.5
 30
0.0
 40
3.0
  1
42
 41
1.2
  7
STRING_H
 11
164.5
 21
54.0
 31
0.0
100
AcDbText
 73
     2
  0
LINE
  5
306
102
{ACAD_REACTORS
330
305
102
}
330
1F
100
AcDbEntity
  8
LAYER-141
  6
Continuous
 62
     6
100
AcDbLine
 10
147.04
 20
106.34
 30
0.0
 11
150.0
 21
100.0
 31
0.0
  0
LINE
  5
307
102
{ACAD_REACTORS
330
305
102
}
330
1F
100
AcDbEntity
  8
LAYER-141
  6
Continuous
 62
     6
100
AcDbLine
 10
150.0
 20
106.0
 30
0.0
 11
150.0
 21
108.5
 31
0.0
  0
ARC
  5
308
102
{ACAD_REACTORS
330
305
102
}
330
1F
100
AcDbEntity
  8
LAYER-138
  6
Continuous
 62
     6
100
AcDbCircle
 10
150.0
 20
107.0
 30
0.0
 40
1.0
100
AcDbArc
 50
90.0
 51
270.0
  0
LINE
  5
309
102
{ACAD_REACTORS
330
305
102
}
330
1F
100
AcDbEntity
  8
LAYER-141
  6
Continuous
 62
     6
100
AcDbLine
 10
150.0
 20
98.5
 30
0.0
 11
150.0
 21
100.0
 31
0.0
  0
LINE
  5
30B
102
{ACAD_REACTORS
330
30A
102
}
330
1F
100
AcDbEntity
  8
LAYER-141
  6
Continuous
 62
     6
100
AcDbLine
 10
147.04
 20
26.34
 30
0.0
 11
150.0
 21
20.0
 31
0.0
  0
LINE
  5
30C
102
{ACAD_REACTORS
330
30A
102
}
330
1F
100
AcDbEntity
  8
LAYER-141
  6
Continuous
 62
     6
100
AcDbLine
 10
150.0
 20
26.0
 30
0.0
 11
150.0
 21
28.5
 31
0.0
  0
ARC
  5
30D
102
{ACAD_REACTORS
330
30A
102
}
330
1F
100
AcDbEntity
  8
LAYER-138
  6
Continuous
 62
     6
100
AcDbCircle
 10
150.0
 20
27.0
 30
0.0
 40
1.0
100
AcDbArc
 50
90.0
 51
270.0
  0
LINE
  5
30E
102
{ACAD_REACTORS
330
30A
102
}
330
1F
100
AcDbEntity
  8
LAYER-141
  6
Continuous
 62
     6
100
AcDbLine
 10
150.0
 20
18.5
 30
0.0
 11
150.0
 21
20.0
 31
0.0
  0
TEXT
  5
30F
102
{ACAD_REACTORS
330
30A
102
}
330
1F
100
AcDbEntity
  8
LAYER-194
  6
Continuous
 62
     2
100
AcDbText
 10
152.0
 20
22.5
 30
0.0
 40
3.0
  1
6
 41
1.2
  7
STRING_H
 11
152.0
 21
24.0
 31
0.0
100
AcDbText
 73
     2
  0
CIRCLE
  5
311
102
{ACAD_REACTORS
330
310
102
}
330
1F
100
AcDbEntity
  8
LAYER-120
  6
Continuous
 62
     1
100
AcDbCircle
 10
42.5
 20
56.0
 30
0.0
 40
1.0
  0
TEXT
  5
312
102
{ACAD_REACTORS
330
310
102
}
330
1F
100
AcDbEntity
  8
LAYER-210
  6
Continuous
 62
     2
100
AcDbText
 10
43.5
 20
57.0
 30
0.0
 40
2.0
  1
80%
 41
1.3
  7
STRING_H
 11
43.5
 21
57.0
 31
0.0
100
AcDbText
 73
     1
  0
CIRCLE
  5
314
102
{ACAD_REACTORS
330
313
102
}
330
1F
100
AcDbEntity
  8
LAYER-120
  6
Continuous
 62
     1
100
AcDbCircle
 10
42.5
 20
51.0
 30
0.0
 40
1.0
  0
TEXT
  5
315
102
{ACAD_REACTORS
330
313
102
}
330
1F
100
AcDbEntity
  8
LAYER-210
  6
Continuous
 62
     2
100
AcDbText
 10
43.5
 20
52.0
 30
0.0
 40
2.0
  1
65%
 41
1.3
  7
STRING_H
 11
43.5
 21
52.0
 31
0.0
100
AcDbText
 73
     1
  0
CIRCLE
  5
317
102
{ACAD_REACTORS
330
316
102
}
330
1F
100
AcDbEntity
  8
LAYER-120
  6
Continuous
 62
     1
100
AcDbCircle
 10
52.5
 20
93.5
 30
0.0
 40
1.0
  0
TEXT
  5
318
102
{ACAD_REACTORS
330
316
102
}
330
1F
100
AcDbEntity
  8
LAYER-210
  6
Continuous
 62
     2
100
AcDbText
 10
35.9375
 20
93.5
 30
0.0
 40
2.5
  1
R.S.T
 41
2.0
  7
STRING_H
 72
     1
 11
45.0
 21
93.5
 31
0.0
100
AcDbText
 73
     1
  0
ARC
  5
31A
102
{ACAD_REACTORS
330
319
102
}
330
1F
100
AcDbEntity
  8
LAYER-141
  6
Continuous
 62
     6
100
AcDbCircle
 10
52.5
 20
49.75
 30
0.0
 40
1.25
100
AcDbArc
 50
270.0
 51
90.0
  0
ARC
  5
31B
102
{ACAD_REACTORS
330
319
102
}
330
1F
100
AcDbEntity
  8
LAYER-141
  6
Continuous
 62
     6
100
AcDbCircle
 10
52.5
 20
54.75
 30
0.0
 40
1.25
100
AcDbArc
 50
270.0
 51
90.0
  0
ARC
  5
31C
102
{ACAD_REACTORS
330
319
102
}
330
1F
100
AcDbEntity
  8
LAYER-141
  6
Continuous
 62
     6
100
AcDbCircle
 10
52.5
 20
57.25
 30
0.0
 40
1.25
100
AcDbArc
 50
270.0
 51
90.0
  0
ARC
  5
31D
102
{ACAD_REACTORS
330
319
102
}
330
1F
100
AcDbEntity
  8
LAYER-141
  6
Continuous
 62
     6
100
AcDbCircle
 10
52.5
 20
52.25
 30
0.0
 40
1.25
100
AcDbArc
 50
270.0
 51
90.0
  0
ARC
  5
31E
102
{ACAD_REACTORS
330
319
102
}
330
1F
100
AcDbEntity
  8
LAYER-141
  6
Continuous
 62
     6
100
AcDbCircle
 10
52.5
 20
47.25
 30
0.0
 40
1.25
100
AcDbArc
 50
270.0
 51
90.0
  0
ARC
  5
31F
102
{ACAD_REACTORS
330
319
102
}
330
1F
100
AcDbEntity
  8
LAYER-141
  6
Continuous
 62
     6
100
AcDbCircle
 10
52.5
 20
44.75
 30
0.0
 40
1.25
100
AcDbArc
 50
270.0
 51
90.0
  0
ARC
  5
320
102
{ACAD_REACTORS
330
319
102
}
330
1F
100
AcDbEntity
  8
LAYER-141
  6
Continuous
 62
     6
100
AcDbCircle
 10
52.5
 20
59.75
 30
0.0
 40
1.25
100
AcDbArc
 50
270.0
 51
90.0
  0
ARC
  5
321
102
{ACAD_REACTORS
330
319
102
}
330
1F
100
AcDbEntity
  8
LAYER-141
  6
Continuous
 62
     6
100
AcDbCircle
 10
52.5
 20
62.25
 30
0.0
 40
1.25
100
AcDbArc
 50
270.0
 51
90.0
  0
LINE
  5
323
102
{ACAD_REACTORS
330
322
102
}
330
1F
100
AcDbEntity
  8
LAYER-141
  6
Continuous
 62
     6
100
AcDbLine
 10
49.54
 20
31.34
 30
0.0
 11
52.5
 21
25.0
 31
0.0
  0
LINE
  5
324
102
{ACAD_REACTORS
330
322
102
}
330
1F
100
AcDbEntity
  8
LAYER-141
  6
Continuous
 62
     6
100
AcDbLine
 10
52.5
 20
31.0
 30
0.0
 11
52.5
 21
33.5
 31
0.0
  0
ARC
  5
325
102
{ACAD_REACTORS
330
322
102
}
330
1F
100
AcDbEntity
  8
LAYER-138
  6
Continuous
 62
     6
100
AcDbCircle
 10
52.5
 20
32.0
 30
0.0
 40
1.0
100
AcDbArc
 50
90.0
 51
270.0
  0
LINE
  5
326
102
{ACAD_REACTORS
330
322
102
}
330
1F
100
AcDbEntity
  8
LAYER-141
  6
Continuous
 62
     6
100
AcDbLine
 10
52.5
 20
23.5
 30
0.0
 11
52.5
 21
25.0
 31
0.0
  0
TEXT
  5
327
102
{ACAD_REACTORS
330
322
102
}
330
1F
100
AcDbEntity
  8
LAYER-194
  6
Continuous
 62
     2
100
AcDbText
 10
54.5
 20
27.5
 30
0.0
 40
3.0
  1
6
 41
1.2
  7
STRING_H
 11
54.5
 21
29.0
 31
0.0
100
AcDbText
 73
     2
  0
LINE
  5
329
102
{ACAD_REACTORS
330
328
102
}
330
1F
100
AcDbEntity
  8
LAYER-141
  6
Continuous
 62
     6
100
AcDbLine
 10
59.54
 20
56.34
 30
0.0
 11
62.5
 21
50.0
 31
0.0
  0
LINE
  5
32A
102
{ACAD_REACTORS
330
328
102
}
330
1F
100
AcDbEntity
  8
LAYER-141
  6
Continuous
 62
     6
100
AcDbLine
 10
62.5
 20
56.0
 30
0.0
 11
62.5
 21
58.5
 31
0.0
  0
ARC
  5
32B
102
{ACAD_REACTORS
330
328
102
}
330
1F
100
AcDbEntity
  8
LAYER-138
  6
Continuous
 62
     6
100
AcDbCircle
 10
62.5
 20
57.0
 30
0.0
 40
1.0
100
AcDbArc
 50
90.0
 51
270.0
  0
LINE
  5
32C
102
{ACAD_REACTORS
330
328
102
}
330
1F
100
AcDbEntity
  8
LAYER-141
  6
Continuous
 62
     6
100
AcDbLine
 10
62.5
 20
48.5
 30
0.0
 11
62.5
 21
50.0
 31
0.0
  0
TEXT
  5
32D
102
{ACAD_REACTORS
330
328
102
}
330
1F
100
AcDbEntity
  8
LAYER-194
  6
Continuous
 62
     2
100
AcDbText
 10
64.5
 20
52.5
 30
0.0
 40
3.0
  1
42
 41
1.2
  7
STRING_H
 11
64.5
 21
54.0
 31
0.0
100
AcDbText
 73
     2
  0
LINE
  5
32F
102
{ACAD_REACTORS
330
32E
102
}
330
1F
100
AcDbEntity
  8
LAYER-141
  6
Continuous
 62
     6
100
AcDbLine
 10
49.54
 20
106.34
 30
0.0
 11
52.5
 21
100.0
 31
0.0
  0
LINE
  5
330
102
{ACAD_REACTORS
330
32E
102
}
330
1F
100
AcDbEntity
  8
LAYER-141
  6
Continuous
 62
     6
100
AcDbLine
 10
52.5
 20
106.0
 30
0.0
 11
52.5
 21
108.5
 31
0.0
  0
ARC
  5
331
102
{ACAD_REACTORS
330
32E
102
}
330
1F
100
AcDbEntity
  8
LAYER-138
  6
Continuous
 62
     6
100
AcDbCircle
 10
52.5
 20
107.0
 30
0.0
 40
1.0
100
AcDbArc
 50
90.0
 51
270.0
  0
LINE
  5
332
102
{ACAD_REACTORS
330
32E
102
}
330
1F
100
AcDbEntity
  8
LAYER-141
  6
Continuous
 62
     6
100
AcDbLine
 10
52.5
 20
98.5
 30
0.0
 11
52.5
 21
100.0
 31
0.0
  0
TEXT
  5
333
102
{ACAD_REACTORS
330
32E
102
}
330
1F
100
AcDbEntity
  8
LAYER-194
  6
Continuous
 62
     2
100
AcDbText
 10
54.5
 20
102.5
 30
0.0
 40
3.0
  1
52
 41
1.2
  7
STRING_H
 11
54.5
 21
104.0
 31
0.0
100
AcDbText
 73
     2
  0
CIRCLE
  5
335
102
{ACAD_REACTORS
330
334
102
}
330
1F
100
AcDbEntity
  8
LAYER-120
  6
Continuous
 62
     1
100
AcDbCircle
 10
-150.0
 20
93.5
 30
0.0
 40
1.0
  0
TEXT
  5
336
102
{ACAD_REACTORS
330
334
102
}
330
1F
100
AcDbEntity
  8
LAYER-210
  6
Continuous
 62
     2
100
AcDbText
 10
-169.0625
 20
93.5
 30
0.0
 40
2.5
  1
R.S.T
 41
2.0
  7
STRING_H
 72
     1
 11
-160.0
 21
93.5
 31
0.0
100
AcDbText
 73
     1
  0
CIRCLE
  5
338
102
{ACAD_REACTORS
330
337
102
}
330
1F
100
AcDbEntity
  8
LAYER-120
  6
Continuous
 62
     1
100
AcDbCircle
 10
-150.0
 20
93.5
 30
0.0
 40
1.0
  0
ARC
  5
33A
102
{ACAD_REACTORS
330
339
102
}
330
1F
100
AcDbEntity
  8
LAYER-141
  6
Continuous
 62
     6
100
AcDbCircle
 10
-140.0
 20
67.25
 30
0.0
 40
1.25
100
AcDbArc
 50
90.0
 51
270.0
  0
ARC
  5
33B
102
{ACAD_REACTORS
330
339
102
}
330
1F
100
AcDbEntity
  8
LAYER-141
  6
Continuous
 62
     6
100
AcDbCircle
 10
-140.0
 20
69.75
 30
0.0
 40
1.25
100
AcDbArc
 50
90.0
 51
270.0
  0
ARC
  5
33C
102
{ACAD_REACTORS
330
339
102
}
330
1F
100
AcDbEntity
  8
LAYER-141
  6
Continuous
 62
     6
100
AcDbCircle
 10
-140.0
 20
64.75
 30
0.0
 40
1.25
100
AcDbArc
 50
90.0
 51
270.0
  0
ARC
  5
33D
102
{ACAD_REACTORS
330
339
102
}
330
1F
100
AcDbEntity
  8
LAYER-141
  6
Continuous
 62
     6
100
AcDbCircle
 10
-150.0
 20
67.25
 30
0.0
 40
1.25
100
AcDbArc
 50
270.0
 51
90.0
  0
ARC
  5
33E
102
{ACAD_REACTORS
330
339
102
}
330
1F
100
AcDbEntity
  8
LAYER-141
  6
Continuous
 62
     6
100
AcDbCircle
 10
-150.0
 20
64.75
 30
0.0
 40
1.25
100
AcDbArc
 50
270.0
 51
90.0
  0
ARC
  5
33F
102
{ACAD_REACTORS
330
339
102
}
330
1F
100
AcDbEntity
  8
LAYER-141
  6
Continuous
 62
     6
100
AcDbCircle
 10
-150.0
 20
62.25
 30
0.0
 40
1.25
100
AcDbArc
 50
270.0
 51
90.0
  0
ARC
  5
340
102
{ACAD_REACTORS
330
339
102
}
330
1F
100
AcDbEntity
  8
LAYER-141
  6
Continuous
 62
     6
100
AcDbCircle
 10
-150.0
 20
59.75
 30
0.0
 40
1.25
100
AcDbArc
 50
270.0
 51
90.0
  0
ARC
  5
341
102
{ACAD_REACTORS
330
339
102
}
330
1F
100
AcDbEntity
  8
LAYER-141
  6
Continuous
 62
     6
100
AcDbCircle
 10
-150.0
 20
57.25
 30
0.0
 40
1.25
100
AcDbArc
 50
270.0
 51
90.0
  0
ARC
  5
342
102
{ACAD_REACTORS
330
339
102
}
330
1F
100
AcDbEntity
  8
LAYER-141
  6
Continuous
 62
     6
100
AcDbCircle
 10
-150.0
 20
54.75
 30
0.0
 40
1.25
100
AcDbArc
 50
270.0
 51
90.0
  0
ARC
  5
343
102
{ACAD_REACTORS
330
339
102
}
330
1F
100
AcDbEntity
  8
LAYER-141
  6
Continuous
 62
     6
100
AcDbCircle
 10
-150.0
 20
52.25
 30
0.0
 40
1.25
100
AcDbArc
 50
270.0
 51
90.0
  0
ARC
  5
344
102
{ACAD_REACTORS
330
339
102
}
330
1F
100
AcDbEntity
  8
LAYER-141
  6
Continuous
 62
     6
100
AcDbCircle
 10
-150.0
 20
49.75
 30
0.0
 40
1.25
100
AcDbArc
 50
270.0
 51
90.0
  0
ARC
  5
345
102
{ACAD_REACTORS
330
339
102
}
330
1F
100
AcDbEntity
  8
LAYER-141
  6
Continuous
 62
     6
100
AcDbCircle
 10
-140.0
 20
49.75
 30
0.0
 40
1.25
100
AcDbArc
 50
90.0
 51
270.0
  0
ARC
  5
346
102
{ACAD_REACTORS
330
339
102
}
330
1F
100
AcDbEntity
  8
LAYER-141
  6
Continuous
 62
     6
100
AcDbCircle
 10
-140.0
 20
47.25
 30
0.0
 40
1.25
100
AcDbArc
 50
90.0
 51
270.0
  0
ARC
  5
347
102
{ACAD_REACTORS
330
339
102
}
330
1F
100
AcDbEntity
  8
LAYER-141
  6
Continuous
 62
     6
100
AcDbCircle
 10
-150.0
 20
69.75
 30
0.0
 40
1.25
100
AcDbArc
 50
270.0
 51
90.0
  0
ARC
  5
348
102
{ACAD_REACTORS
330
339
102
}
330
1F
100
AcDbEntity
  8
LAYER-141
  6
Continuous
 62
     6
100
AcDbCircle
 10
-150.0
 20
47.25
 30
0.0
 40
1.25
100
AcDbArc
 50
270.0
 51
90.0
  0
LINE
  5
349
102
{ACAD_REACTORS
330
339
102
}
330
1F
100
AcDbEntity
  8
LAYER-138
  6
Continuous
 62
     6
100
AcDbLine
 10
-140.0
 20
63.5
 30
0.0
 11
-140.0
 21
60.0
 31
0.0
  0
LINE
  5
34A
102
{ACAD_REACTORS
330
339
102
}
330
1F
100
AcDbEntity
  8
LAYER-138
  6
Continuous
 62
     6
100
AcDbLine
 10
-140.0
 20
51.0
 30
0.0
 11
-140.0
 21
53.5
 31
0.0
  0
CIRCLE
  5
34C
102
{ACAD_REACTORS
330
34B
102
}
330
1F
100
AcDbEntity
  8
LAYER-120
  6
Continuous
 62
     1
100
AcDbCircle
 10
-150.0
 20
13.5
 30
0.0
 40
1.0
  0
TEXT
  5
34D
102
{ACAD_REACTORS
330
34B
102
}
330
1F
100
AcDbEntity
  8
LAYER-210
  6
Continuous
 62
     2
100
AcDbText
 10
-159.0625
 20
8.999999999999998
 30
0.0
 40
2.5
  1
U.V.W
 41
2.0
  7
STRING_H
 72
     1
 11
-150.0
 21
11.5
 31
0.0
100
AcDbText
 73
     3
  0
LINE
  5
34F
102
{ACAD_REACTORS
330
34E
102
}
330
1F
100
AcDbEntity
  8
LAYER-141
  6
Continuous
 62
     6
100
AcDbLine
 10
-142.96
 20
60.09
 30
0.0
 11
-140.0
 21
53.75
 31
0.0
  0
LINE
  5
350
102
{ACAD_REACTORS
330
34E
102
}
330
1F
100
AcDbEntity
  8
LAYER-141
  6
Continuous
 62
     6
100
AcDbLine
 10
-140.0
 20
59.75
 30
0.0
 11
-140.0
 21
62.25
 31
0.0
  0
ARC
  5
351
102
{ACAD_REACTORS
330
34E
102
}
330
1F
100
AcDbEntity
  8
LAYER-138
  6
Continuous
 62
     6
100
AcDbCircle
 10
-140.0
 20
60.75
 30
0.0
 40
1.0
100
AcDbArc
 50
90.0
 51
270.0
  0
LINE
  5
352
102
{ACAD_REACTORS
330
34E
102
}
330
1F
100
AcDbEntity
  8
LAYER-141
  6
Continuous
 62
     6
100
AcDbLine
 10
-140.0
 20
52.25
 30
0.0
 11
-140.0
 21
53.75
 31
0.0
  0
TEXT
  5
353
102
{ACAD_REACTORS
330
34E
102
}
330
1F
100
AcDbEntity
  8
LAYER-194
  6
Continuous
 62
     2
100
AcDbText
 10
-138.0
 20
56.25
 30
0.0
 40
3.0
  1
42
 41
1.2
  7
STRING_H
 11
-138.0
 21
57.75
 31
0.0
100
AcDbText
 73
     2
  0
LINE
  5
355
102
{ACAD_REACTORS
330
354
102
}
330
1F
100
AcDbEntity
  8
LAYER-141
  6
Continuous
 62
     6
100
AcDbLine
 10
-152.96
 20
106.34
 30
0.0
 11
-150.0
 21
100.0
 31
0.0
  0
LINE
  5
356
102
{ACAD_REACTORS
330
354
102
}
330
1F
100
AcDbEntity
  8
LAYER-141
  6
Continuous
 62
     6
100
AcDbLine
 10
-150.0
 20
106.0
 30
0.0
 11
-150.0
 21
108.5
 31
0.0
  0
ARC
  5
357
102
{ACAD_REACTORS
330
354
102
}
330
1F
100
AcDbEntity
  8
LAYER-138
  6
Continuous
 62
     6
100
AcDbCircle
 10
-150.0
 20
107.0
 30
0.0
 40
1.0
100
AcDbArc
 50
90.0
 51
270.0
  0
LINE
  5
358
102
{ACAD_REACTORS
330
354
102
}
330
1F
100
AcDbEntity
  8
LAYER-141
  6
Continuous
 62
     6
100
AcDbLine
 10
-150.0
 20
98.5
 30
0.0
 11
-150.0
 21
100.0
 31
0.0
  0
TEXT
  5
359
102
{ACAD_REACTORS
330
354
102
}
330
1F
100
AcDbEntity
  8
LAYER-194
  6
Continuous
 62
     2
100
AcDbText
 10
-148.0
 20
102.5
 30
0.0
 40
3.0
  1
52
 41
1.2
  7
STRING_H
 11
-148.0
 21
104.0
 31
0.0
100
AcDbText
 73
     2
  0
CIRCLE
  5
35B
102
{ACAD_REACTORS
330
35A
102
}
330
1F
100
AcDbEntity
  8
LAYER-120
  6
Continuous
 62
     1
100
AcDbCircle
 10
-47.5
 20
93.5
 30
0.0
 40
1.0
  0
TEXT
  5
35C
102
{ACAD_REACTORS
330
35A
102
}
330
1F
100
AcDbEntity
  8
LAYER-210
  6
Continuous
 62
     2
100
AcDbText
 10
-65.3125
 20
93.5
 30
0.0
 40
2.5
  1
R.S.T
 41
2.0
  7
STRING_H
 72
     1
 11
-56.25
 21
93.5
 31
0.0
100
AcDbText
 73
     1
  0
LINE
  5
35E
102
{ACAD_REACTORS
330
35D
102
}
330
1F
100
AcDbEntity
  8
LAYER-141
  6
Continuous
 62
     6
100
AcDbLine
 10
-37.96
 20
61.34
 30
0.0
 11
-35.0
 21
55.0
 31
0.0
  0
LINE
  5
35F
102
{ACAD_REACTORS
330
35D
102
}
330
1F
100
AcDbEntity
  8
LAYER-141
  6
Continuous
 62
     6
100
AcDbLine
 10
-35.0
 20
61.0
 30
0.0
 11
-35.0
 21
63.5
 31
0.0
  0
ARC
  5
360
102
{ACAD_REACTORS
330
35D
102
}
330
1F
100
AcDbEntity
  8
LAYER-138
  6
Continuous
 62
     6
100
AcDbCircle
 10
-35.0
 20
62.0
 30
0.0
 40
1.0
100
AcDbArc
 50
90.0
 51
270.0
  0
LINE
  5
361
102
{ACAD_REACTORS
330
35D
102
}
330
1F
100
AcDbEntity
  8
LAYER-141
  6
Continuous
 62
     6
100
AcDbLine
 10
-35.0
 20
53.5
 30
0.0
 11
-35.0
 21
55.0
 31
0.0
  0
TEXT
  5
362
102
{ACAD_REACTORS
330
35D
102
}
330
1F
100
AcDbEntity
  8
LAYER-194
  6
Continuous
 62
     2
100
AcDbText
 10
-33.0
 20
57.5
 30
0.0
 40
3.0
  1
42
 41
1.2
  7
STRING_H
 11
-33.0
 21
59.0
 31
0.0
100
AcDbText
 73
     2
  0
LINE
  5
364
102
{ACAD_REACTORS
330
363
102
}
330
1F
100
AcDbEntity
  8
LAYER-141
  6
Continuous
 62
     6
100
AcDbLine
 10
-46.75
 20
106.5
 30
0.0
 11
-48.25
 21
106.5
 31
0.0
  0
LINE
  5
365
102
{ACAD_REACTORS
330
363
102
}
330
1F
100
AcDbEntity
  8
LAYER-141
  6
Continuous
 62
     6
100
AcDbLine
 10
-47.5
 20
106.5
 30
0.0
 11
-47.5
 21
107.5
 31
0.0
  0
LINE
  5
366
102
{ACAD_REACTORS
330
363
102
}
330
1F
100
AcDbEntity
  8
LAYER-141
  6
Continuous
 62
     6
100
AcDbLine
 10
-50.46
 20
106.34
 30
0.0
 11
-47.5
 21
100.0
 31
0.0
  0
LINE
  5
367
102
{ACAD_REACTORS
330
363
102
}
330
1F
100
AcDbEntity
  8
LAYER-141
  6
Continuous
 62
     6
100
AcDbLine
 10
-47.5
 20
94.75
 30
0.0
 11
-47.5
 21
100.0
 31
0.0
  0
LINE
  5
368
102
{ACAD_REACTORS
330
363
102
}
330
1F
100
AcDbEntity
  8
LAYER-141
  6
Continuous
 62
     6
100
AcDbLine
 10
-49.04
 20
105.08
 30
0.0
 11
-47.56
 21
101.9
 31
0.0
  0
LINE
  5
369
102
{ACAD_REACTORS
330
363
102
}
330
1F
100
AcDbEntity
  8
LAYER-141
  6
Continuous
 62
     6
100
AcDbLine
 10
-50.4
 20
104.44
 30
0.0
 11
-48.92
 21
101.27
 31
0.0
  0
LINE
  5
36A
102
{ACAD_REACTORS
330
363
102
}
330
1F
100
AcDbEntity
  8
LAYER-141
  6
Continuous
 62
     6
100
AcDbLine
 10
-50.4
 20
104.44
 30
0.0
 11
-49.04
 21
105.08
 31
0.0
  0
LINE
  5
36B
102
{ACAD_REACTORS
330
363
102
}
330
1F
100
AcDbEntity
  8
LAYER-141
  6
Continuous
 62
     6
100
AcDbLine
 10
-48.92
 20
101.27
 30
0.0
 11
-47.56
 21
101.9
 31
0.0
  0
TEXT
  5
36C
102
{ACAD_REACTORS
330
363
102
}
330
1F
100
AcDbEntity
  8
LAYER-194
  6
Continuous
 62
     2
100
AcDbText
 10
-45.5
 20
102.5
 30
0.0
 40
3.0
  1
52
 41
1.2
  7
STRING_H
 11
-45.5
 21
104.0
 31
0.0
100
AcDbText
 73
     2
  0
CIRCLE
  5
36E
102
{ACAD_REACTORS
330
36D
102
}
330
1F
100
AcDbEntity
  8
LAYER-120
  6
Continuous
 62
     2
100
AcDbCircle
 10
-135.0
 20
-45.5
 30
0.0
 40
1.0
  0
ARC
  5
370
102
{ACAD_REACTORS
330
36F
102
}
330
1F
100
AcDbEntity
  8
LAYER-141
  6
Continuous
 62
     6
100
AcDbCircle
 10
-135.0
 20
-61.5
 30
0.0
 40
1.25
100
AcDbArc
 50
270.0
 51
90.0
  0
ARC
  5
371
102
{ACAD_REACTORS
330
36F
102
}
330
1F
100
AcDbEntity
  8
LAYER-141
  6
Continuous
 62
     6
100
AcDbCircle
 10
-135.0
 20
-56.5
 30
0.0
 40
1.25
100
AcDbArc
 50
270.0
 51
90.0
  0
ARC
  5
372
102
{ACAD_REACTORS
330
36F
102
}
330
1F
100
AcDbEntity
  8
LAYER-141
  6
Continuous
 62
     6
100
AcDbCircle
 10
-135.0
 20
-54.0
 30
0.0
 40
1.25
100
AcDbArc
 50
270.0
 51
90.0
  0
ARC
  5
373
102
{ACAD_REACTORS
330
36F
102
}
330
1F
100
AcDbEntity
  8
LAYER-141
  6
Continuous
 62
     6
100
AcDbCircle
 10
-135.0
 20
-59.0
 30
0.0
 40
1.25
100
AcDbArc
 50
270.0
 51
90.0
  0
ARC
  5
374
102
{ACAD_REACTORS
330
36F
102
}
330
1F
100
AcDbEntity
  8
LAYER-141
  6
Continuous
 62
     6
100
AcDbCircle
 10
-135.0
 20
-64.0
 30
0.0
 40
1.25
100
AcDbArc
 50
270.0
 51
90.0
  0
ARC
  5
375
102
{ACAD_REACTORS
330
36F
102
}
330
1F
100
AcDbEntity
  8
LAYER-141
  6
Continuous
 62
     6
100
AcDbCircle
 10
-135.0
 20
-66.5
 30
0.0
 40
1.25
100
AcDbArc
 50
270.0
 51
90.0
  0
ARC
  5
376
102
{ACAD_REACTORS
330
36F
102
}
330
1F
100
AcDbEntity
  8
LAYER-141
  6
Continuous
 62
     6
100
AcDbCircle
 10
-135.0
 20
-51.5
 30
0.0
 40
1.25
100
AcDbArc
 50
270.0
 51
90.0
  0
ARC
  5
377
102
{ACAD_REACTORS
330
36F
102
}
330
1F
100
AcDbEntity
  8
LAYER-141
  6
Continuous
 62
     6
100
AcDbCircle
 10
-135.0
 20
-49.0
 30
0.0
 40
1.25
100
AcDbArc
 50
270.0
 51
90.0
  0
ARC
  5
379
102
{ACAD_REACTORS
330
378
102
}
330
1F
100
AcDbEntity
  8
LAYER-141
  6
Continuous
 62
     6
100
AcDbCircle
 10
-135.0
 20
-96.5
 30
0.0
 40
1.25
100
AcDbArc
 50
270.0
 51
90.0
  0
ARC
  5
37A
102
{ACAD_REACTORS
330
378
102
}
330
1F
100
AcDbEntity
  8
LAYER-141
  6
Continuous
 62
     6
100
AcDbCircle
 10
-135.0
 20
-91.5
 30
0.0
 40
1.25
100
AcDbArc
 50
270.0
 51
90.0
  0
ARC
  5
37B
102
{ACAD_REACTORS
330
378
102
}
330
1F
100
AcDbEntity
  8
LAYER-141
  6
Continuous
 62
     6
100
AcDbCircle
 10
-135.0
 20
-89.0
 30
0.0
 40
1.25
100
AcDbArc
 50
270.0
 51
90.0
  0
ARC
  5
37C
102
{ACAD_REACTORS
330
378
102
}
330
1F
100
AcDbEntity
  8
LAYER-141
  6
Continuous
 62
     6
100
AcDbCircle
 10
-135.0
 20
-94.0
 30
0.0
 40
1.25
100
AcDbArc
 50
270.0
 51
90.0
  0
ARC
  5
37D
102
{ACAD_REACTORS
330
378
102
}
330
1F
100
AcDbEntity
  8
LAYER-141
  6
Continuous
 62
     6
100
AcDbCircle
 10
-135.0
 20
-99.0
 30
0.0
 40
1.25
100
AcDbArc
 50
270.0
 51
90.0
  0
ARC
  5
37E
102
{ACAD_REACTORS
330
378
102
}
330
1F
100
AcDbEntity
  8
LAYER-141
  6
Continuous
 62
     6
100
AcDbCircle
 10
-135.0
 20
-101.5
 30
0.0
 40
1.25
100
AcDbArc
 50
270.0
 51
90.0
  0
ARC
  5
37F
102
{ACAD_REACTORS
330
378
102
}
330
1F
100
AcDbEntity
  8
LAYER-141
  6
Continuous
 62
     6
100
AcDbCircle
 10
-135.0
 20
-86.5
 30
0.0
 40
1.25
100
AcDbArc
 50
270.0
 51
90.0
  0
ARC
  5
380
102
{ACAD_REACTORS
330
378
102
}
330
1F
100
AcDbEntity
  8
LAYER-141
  6
Continuous
 62
     6
100
AcDbCircle
 10
-135.0
 20
-84.0
 30
0.0
 40
1.25
100
AcDbArc
 50
270.0
 51
90.0
  0
ARC
  5
382
102
{ACAD_REACTORS
330
381
102
}
330
1F
100
AcDbEntity
  8
LAYER-141
  6
Continuous
 62
     6
100
AcDbCircle
 10
-120.0
 20
-91.5
 30
0.0
 40
1.25
100
AcDbArc
 50
90.0
 51
270.0
  0
ARC
  5
383
102
{ACAD_REACTORS
330
381
102
}
330
1F
100
AcDbEntity
  8
LAYER-141
  6
Continuous
 62
     6
100
AcDbCircle
 10
-120.0
 20
-86.5
 30
0.0
 40
1.25
100
AcDbArc
 50
90.0
 51
270.0
  0
ARC
  5
384
102
{ACAD_REACTORS
330
381
102
}
330
1F
100
AcDbEntity
  8
LAYER-141
  6
Continuous
 62
     6
100
AcDbCircle
 10
-120.0
 20
-84.0
 30
0.0
 40
1.25
100
AcDbArc
 50
90.0
 51
270.0
  0
ARC
  5
385
102
{ACAD_REACTORS
330
381
102
}
330
1F
100
AcDbEntity
  8
LAYER-141
  6
Continuous
 62
     6
100
AcDbCircle
 10
-120.0
 20
-89.0
 30
0.0
 40
1.25
100
AcDbArc
 50
90.0
 51
270.0
  0
LINE
  5
386
102
{ACAD_REACTORS
330
381
102
}
330
1F
100
AcDbEntity
  8
LAYER-138
  6
Continuous
 62
     6
100
AcDbLine
 10
-120.0
 20
-82.75
 30
0.0
 11
-120.0
 21
-80.25
 31
0.0
  0
LINE
  5
387
102
{ACAD_REACTORS
330
381
102
}
330
1F
100
AcDbEntity
  8
LAYER-138
  6
Continuous
 62
     6
100
AcDbLine
 10
-120.0
 20
-92.75
 30
0.0
 11
-120.0
 21
-95.25
 31
0.0
  0
CIRCLE
  5
389
102
{ACAD_REACTORS
330
388
102
}
330
1F
100
AcDbEntity
  8
LAYER-120
  6
Continuous
 62
     2
100
AcDbCircle
 10
-135.0
 20
-116.5
 30
0.0
 40
1.0
  0
LINE
  5
38B
102
{ACAD_REACTORS
330
38A
102
}
330
1F
100
AcDbEntity
  8
LAYER-141
  6
Continuous
 62
     6
100
AcDbLine
 10
-122.96
 20
-99.91
 30
0.0
 11
-120.0
 21
-106.25
 31
0.0
  0
LINE
  5
38C
102
{ACAD_REACTORS
330
38A
102
}
330
1F
100
AcDbEntity
  8
LAYER-141
  6
Continuous
 62
     6
100
AcDbLine
 10
-120.0
 20
-100.25
 30
0.0
 11
-120.0
 21
-97.75
 31
0.0
  0
ARC
  5
38D
102
{ACAD_REACTORS
330
38A
102
}
330
1F
100
AcDbEntity
  8
LAYER-138
  6
Continuous
 62
     6
100
AcDbCircle
 10
-120.0
 20
-99.25
 30
0.0
 40
1.0
100
AcDbArc
 50
90.0
 51
270.0
  0
LINE
  5
38E
102
{ACAD_REACTORS
330
38A
102
}
330
1F
100
AcDbEntity
  8
LAYER-141
  6
Continuous
 62
     6
100
AcDbLine
 10
-120.0
 20
-107.75
 30
0.0
 11
-120.0
 21
-106.25
 31
0.0
  0
TEXT
  5
38F
102
{ACAD_REACTORS
330
38A
102
}
330
1F
100
AcDbEntity
  8
LAYER-194
  6
Continuous
 62
     2
100
AcDbText
 10
-118.0
 20
-103.75
 30
0.0
 40
3.0
  1
42-1
 41
1.2
  7
STRING_H
 11
-118.0
 21
-102.25
 31
0.0
100
AcDbText
 73
     2
  0
LINE
  5
391
102
{ACAD_REACTORS
330
390
102
}
330
1F
100
AcDbEntity
  8
LAYER-141
  6
Continuous
 62
     6
100
AcDbLine
 10
-137.96
 20
-31.16
 30
0.0
 11
-135.0
 21
-37.5
 31
0.0
  0
LINE
  5
392
102
{ACAD_REACTORS
330
390
102
}
330
1F
100
AcDbEntity
  8
LAYER-141
  6
Continuous
 62
     6
100
AcDbLine
 10
-135.0
 20
-31.5
 30
0.0
 11
-135.0
 21
-29.0
 31
0.0
  0
ARC
  5
393
102
{ACAD_REACTORS
330
390
102
}
330
1F
100
AcDbEntity
  8
LAYER-138
  6
Continuous
 62
     6
100
AcDbCircle
 10
-135.0
 20
-30.5
 30
0.0
 40
1.0
100
AcDbArc
 50
90.0
 51
270.0
  0
LINE
  5
394
102
{ACAD_REACTORS
330
390
102
}
330
1F
100
AcDbEntity
  8
LAYER-141
  6
Continuous
 62
     6
100
AcDbLine
 10
-135.0
 20
-39.0
 30
0.0
 11
-135.0
 21
-37.5
 31
0.0
  0
TEXT
  5
395
102
{ACAD_REACTORS
330
390
102
}
330
1F
100
AcDbEntity
  8
LAYER-194
  6
Continuous
 62
     2
100
AcDbText
 10
-133.0
 20
-35.0
 30
0.0
 40
3.0
  1
52
 41
1.2
  7
STRING_H
 11
-133.0
 21
-33.5
 31
0.0
100
AcDbText
 73
     2
  0
CIRCLE
  5
397
102
{ACAD_REACTORS
330
396
102
}
330
1F
100
AcDbEntity
  8
LAYER-120
  6
Continuous
 62
     2
100
AcDbCircle
 10
-52.5
 20
-49.0
 30
0.0
 40
1.0
  0
ARC
  5
399
102
{ACAD_REACTORS
330
398
102
}
330
1F
100
AcDbEntity
  8
LAYER-141
  6
Continuous
 62
     6
100
AcDbCircle
 10
-42.5
 20
-62.75
 30
0.0
 40
1.25
100
AcDbArc
 50
270.0
 51
90.0
  0
ARC
  5
39A
102
{ACAD_REACTORS
330
398
102
}
330
1F
100
AcDbEntity
  8
LAYER-141
  6
Continuous
 62
     6
100
AcDbCircle
 10
-42.5
 20
-57.75
 30
0.0
 40
1.25
100
AcDbArc
 50
270.0
 51
90.0
  0
ARC
  5
39B
102
{ACAD_REACTORS
330
398
102
}
330
1F
100
AcDbEntity
  8
LAYER-141
  6
Continuous
 62
     6
100
AcDbCircle
 10
-42.5
 20
-55.25
 30
0.0
 40
1.25
100
AcDbArc
 50
270.0
 51
90.0
  0
ARC
  5
39C
102
{ACAD_REACTORS
330
398
102
}
330
1F
100
AcDbEntity
  8
LAYER-141
  6
Continuous
 62
     6
100
AcDbCircle
 10
-42.5
 20
-60.25
 30
0.0
 40
1.25
100
AcDbArc
 50
270.0
 51
90.0
  0
ARC
  5
39D
102
{ACAD_REACTORS
330
398
102
}
330
1F
100
AcDbEntity
  8
LAYER-141
  6
Continuous
 62
     6
100
AcDbCircle
 10
-42.5
 20
-65.25
 30
0.0
 40
1.25
100
AcDbArc
 50
270.0
 51
90.0
  0
ARC
  5
39E
102
{ACAD_REACTORS
330
398
102
}
330
1F
100
AcDbEntity
  8
LAYER-141
  6
Continuous
 62
     6
100
AcDbCircle
 10
-42.5
 20
-67.75
 30
0.0
 40
1.25
100
AcDbArc
 50
270.0
 51
90.0
  0
ARC
  5
39F
102
{ACAD_REACTORS
330
398
102
}
330
1F
100
AcDbEntity
  8
LAYER-141
  6
Continuous
 62
     6
100
AcDbCircle
 10
-42.5
 20
-52.75
 30
0.0
 40
1.25
100
AcDbArc
 50
270.0
 51
90.0
  0
ARC
  5
3A0
102
{ACAD_REACTORS
330
398
102
}
330
1F
100
AcDbEntity
  8
LAYER-141
  6
Continuous
 62
     6
100
AcDbCircle
 10
-42.5
 20
-50.25
 30
0.0
 40
1.25
100
AcDbArc
 50
270.0
 51
90.0
  0
ARC
  5
3A2
102
{ACAD_REACTORS
330
3A1
102
}
330
1F
100
AcDbEntity
  8
LAYER-141
  6
Continuous
 62
     6
100
AcDbCircle
 10
-42.5
 20
-97.75
 30
0.0
 40
1.25
100
AcDbArc
 50
270.0
 51
90.0
  0
ARC
  5
3A3
102
{ACAD_REACTORS
330
3A1
102
}
330
1F
100
AcDbEntity
  8
LAYER-141
  6
Continuous
 62
     6
100
AcDbCircle
 10
-42.5
 20
-92.75
 30
0.0
 40
1.25
100
AcDbArc
 50
270.0
 51
90.0
  0
ARC
  5
3A4
102
{ACAD_REACTORS
330
3A1
102
}
330
1F
100
AcDbEntity
  8
LAYER-141
  6
Continuous
 62
     6
100
AcDbCircle
 10
-42.5
 20
-90.25
 30
0.0
 40
1.25
100
AcDbArc
 50
270.0
 51
90.0
  0
ARC
  5
3A5
102
{ACAD_REACTORS
330
3A1
102
}
330
1F
100
AcDbEntity
  8
LAYER-141
  6
Continuous
 62
     6
100
AcDbCircle
 10
-42.5
 20
-95.25
 30
0.0
 40
1.25
100
AcDbArc
 50
270.0
 51
90.0
  0
ARC
  5
3A6
102
{ACAD_REACTORS
330
3A1
102
}
330
1F
100
AcDbEntity
  8
LAYER-141
  6
Continuous
 62
     6
100
AcDbCircle
 10
-42.5
 20
-100.25
 30
0.0
 40
1.25
100
AcDbArc
 50
270.0
 51
90.0
  0
ARC
  5
3A7
102
{ACAD_REACTORS
330
3A1
102
}
330
1F
100
AcDbEntity
  8
LAYER-141
  6
Continuous
 62
     6
100
AcDbCircle
 10
-42.5
 20
-102.75
 30
0.0
 40
1.25
100
AcDbArc
 50
270.0
 51
90.0
  0
ARC
  5
3A8
102
{ACAD_REACTORS
330
3A1
102
}
330
1F
100
AcDbEntity
  8
LAYER-141
  6
Continuous
 62
     6
100
AcDbCircle
 10
-42.5
 20
-87.75
 30
0.0
 40
1.25
100
AcDbArc
 50
270.0
 51
90.0
  0
ARC
  5
3A9
102
{ACAD_REACTORS
330
3A1
102
}
330
1F
100
AcDbEntity
  8
LAYER-141
  6
Continuous
 62
     6
100
AcDbCircle
 10
-42.5
 20
-85.25
 30
0.0
 40
1.25
100
AcDbArc
 50
270.0
 51
90.0
  0
CIRCLE
  5
3AB
102
{ACAD_REACTORS
330
3AA
102
}
330
1F
100
AcDbEntity
  8
LAYER-120
  6
Continuous
 62
     2
100
AcDbCircle
 10
-42.5
 20
-109.0
 30
0.0
 40
1.0
  0
LINE
  5
3AD
102
{ACAD_REACTORS
330
3AC
102
}
330
1F
100
AcDbEntity
  8
LAYER-141
  6
Continuous
 62
     6
100
AcDbLine
 10
-55.46
 20
-31.16
 30
0.0
 11
-52.5
 21
-37.5
 31
0.0
  0
LINE
  5
3AE
102
{ACAD_REACTORS
330
3AC
102
}
330
1F
100
AcDbEntity
  8
LAYER-141
  6
Continuous
 62
     6
100
AcDbLine
 10
-52.5
 20
-31.5
 30
0.0
 11
-52.5
 21
-29.0
 31
0.0
  0
ARC
  5
3AF
102
{ACAD_REACTORS
330
3AC
102
}
330
1F
100
AcDbEntity
  8
LAYER-138
  6
Continuous
 62
     6
100
AcDbCircle
 10
-52.5
 20
-30.5
 30
0.0
 40
1.0
100
AcDbArc
 50
90.0
 51
270.0
  0
LINE
  5
3B0
102
{ACAD_REACTORS
330
3AC
102
}
330
1F
100
AcDbEntity
  8
LAYER-141
  6
Continuous
 62
     6
100
AcDbLine
 10
-52.5
 20
-39.0
 30
0.0
 11
-52.5
 21
-37.5
 31
0.0
  0
TEXT
  5
3B1
102
{ACAD_REACTORS
330
3AC
102
}
330
1F
100
AcDbEntity
  8
LAYER-194
  6
Continuous
 62
     2
100
AcDbText
 10
-50.5
 20
-35.0
 30
0.0
 40
3.0
  1
52
 41
1.2
  7
STRING_H
 11
-50.5
 21
-33.5
 31
0.0
100
AcDbText
 73
     2
  0
CIRCLE
  5
3B3
102
{ACAD_REACTORS
330
3B2
102
}
330
1F
100
AcDbEntity
  8
LAYER-138
  6
Continuous
 62
     4
100
AcDbCircle
 10
60.0
 20
-21.5
 30
0.0
 40
1.25
  0
CIRCLE
  5
3B4
102
{ACAD_REACTORS
330
3B2
102
}
330
1F
100
AcDbEntity
  8
LAYER-138
  6
Continuous
 62
     4
100
AcDbCircle
 10
60.0
 20
-21.5
 30
0.0
 40
0.75
  0
CIRCLE
  5
3B5
102
{ACAD_REACTORS
330
3B2
102
}
330
1F
100
AcDbEntity
  8
LAYER-138
  6
Continuous
 62
     7
100
AcDbCircle
 10
60.0
 20
-21.5
 30
0.0
 40
0.75
  0
TEXT
  5
3B6
102
{ACAD_REACTORS
330
3B2
102
}
330
1F
100
AcDbEntity
  8
LAYER-210
  6
Continuous
 62
     2
100
AcDbText
 10
49.125
 20
-19.25
 30
0.0
 40
3.0
  1
R.S.T
 41
2.0
  7
STRING_H
 72
     1
 11
60.0
 21
-17.75
 31
0.0
100
AcDbText
 73
     2
  0
LINE
  5
3B8
102
{ACAD_REACTORS
330
3B7
102
}
330
1F
100
AcDbEntity
  8
LAYER-141
  6
Continuous
 62
     6
100
AcDbLine
 10
37.04
 20
-51.16
 30
0.0
 11
40.0
 21
-57.5
 31
0.0
  0
LINE
  5
3B9
102
{ACAD_REACTORS
330
3B7
102
}
330
1F
100
AcDbEntity
  8
LAYER-141
  6
Continuous
 62
     6
100
AcDbLine
 10
40.0
 20
-51.5
 30
0.0
 11
40.0
 21
-49.0
 31
0.0
  0
ARC
  5
3BA
102
{ACAD_REACTORS
330
3B7
102
}
330
1F
100
AcDbEntity
  8
LAYER-138
  6
Continuous
 62
     6
100
AcDbCircle
 10
40.0
 20
-50.5
 30
0.0
 40
1.0
100
AcDbArc
 50
90.0
 51
270.0
  0
LINE
  5
3BB
102
{ACAD_REACTORS
330
3B7
102
}
330
1F
100
AcDbEntity
  8
LAYER-141
  6
Continuous
 62
     6
100
AcDbLine
 10
40.0
 20
-59.0
 30
0.0
 11
40.0
 21
-57.5
 31
0.0
  0
TEXT
  5
3BC
102
{ACAD_REACTORS
330
3B7
102
}
330
1F
100
AcDbEntity
  8
LAYER-194
  6
Continuous
 62
     2
100
AcDbText
 10
42.0
 20
-55.0
 30
0.0
 40
3.0
  1
42-1
 41
1.2
  7
STRING_H
 11
42.0
 21
-53.5
 31
0.0
100
AcDbText
 73
     2
  0
LINE
  5
3BE
102
{ACAD_REACTORS
330
3BD
102
}
330
1F
100
AcDbEntity
  8
LAYER-141
  6
Continuous
 62
     6
100
AcDbLine
 10
57.04
 20
-51.16
 30
0.0
 11
60.0
 21
-57.5
 31
0.0
  0
LINE
  5
3BF
102
{ACAD_REACTORS
330
3BD
102
}
330
1F
100
AcDbEntity
  8
LAYER-141
  6
Continuous
 62
     6
100
AcDbLine
 10
60.0
 20
-51.5
 30
0.0
 11
60.0
 21
-49.0
 31
0.0
  0
ARC
  5
3C0
102
{ACAD_REACTORS
330
3BD
102
}
330
1F
100
AcDbEntity
  8
LAYER-138
  6
Continuous
 62
     6
100
AcDbCircle
 10
60.0
 20
-50.5
 30
0.0
 40
1.0
100
AcDbArc
 50
90.0
 51
270.0
  0
LINE
  5
3C1
102
{ACAD_REACTORS
330
3BD
102
}
330
1F
100
AcDbEntity
  8
LAYER-141
  6
Continuous
 62
     6
100
AcDbLine
 10
60.0
 20
-59.0
 30
0.0
 11
60.0
 21
-57.5
 31
0.0
  0
TEXT
  5
3C2
102
{ACAD_REACTORS
330
3BD
102
}
330
1F
100
AcDbEntity
  8
LAYER-194
  6
Continuous
 62
     2
100
AcDbText
 10
62.0
 20
-55.0
 30
0.0
 40
3.0
  1
52
 41
1.2
  7
STRING_H
 11
62.0
 21
-53.5
 31
0.0
100
AcDbText
 73
     2
  0
CIRCLE
  5
3C4
102
{ACAD_REACTORS
330
3C3
102
}
330
1F
100
AcDbEntity
  8
LAYER-120
  6
Continuous
 62
     1
100
AcDbCircle
 10
40.0
 20
-61.5
 30
0.0
 40
1.0
  0
LINE
  5
3C6
102
{ACAD_REACTORS
330
3C5
102
}
330
1F
100
AcDbEntity
  8
LAYER-120
  6
Continuous
 62
     6
100
AcDbLine
 10
60.0
 20
-68.0
 30
0.0
 11
62.0
 21
-68.0
 31
0.0
  0
LINE
  5
3C7
102
{ACAD_REACTORS
330
3C5
102
}
330
1F
100
AcDbEntity
  8
LAYER-120
  6
Continuous
 62
     6
100
AcDbLine
 10
60.0
 20
-70.0
 30
0.0
 11
62.0
 21
-70.0
 31
0.0
  0
LINE
  5
3C8
102
{ACAD_REACTORS
330
3C5
102
}
330
1F
100
AcDbEntity
  8
LAYER-120
  6
Continuous
 62
     6
100
AcDbLine
 10
62.0
 20
-70.0
 30
0.0
 11
62.0
 21
-68.0
 31
0.0
  0
TEXT
  5
3C9
102
{ACAD_REACTORS
330
3C5
102
}
330
1F
100
AcDbEntity
  8
LAYER-194
  6
Continuous
 62
     2
100
AcDbText
 10
64.0
 20
-70.5
 30
0.0
 40
3.0
  1
49
 41
1.333333333333333
  7
STRING_H
 11
64.0
 21
-69.0
 31
0.0
100
AcDbText
 73
     2
  0
ARC
  5
3CB
102
{ACAD_REACTORS
330
3CA
102
}
330
1F
100
AcDbEntity
  8
LAYER-141
  6
Continuous
 62
     6
100
AcDbCircle
 10
30.0
 20
-72.75
 30
0.0
 40
1.25
100
AcDbArc
 50
90.0
 51
270.0
  0
ARC
  5
3CC
102
{ACAD_REACTORS
330
3CA
102
}
330
1F
100
AcDbEntity
  8
LAYER-141
  6
Continuous
 62
     6
100
AcDbCircle
 10
30.0
 20
-67.75
 30
0.0
 40
1.25
100
AcDbArc
 50
90.0
 51
270.0
  0
ARC
  5
3CD
102
{ACAD_REACTORS
330
3CA
102
}
330
1F
100
AcDbEntity
  8
LAYER-141
  6
Continuous
 62
     6
100
AcDbCircle
 10
30.0
 20
-75.25
 30
0.0
 40
1.25
100
AcDbArc
 50
90.0
 51
270.0
  0
ARC
  5
3CE
102
{ACAD_REACTORS
330
3CA
102
}
330
1F
100
AcDbEntity
  8
LAYER-141
  6
Continuous
 62
     6
100
AcDbCircle
 10
30.0
 20
-70.25
 30
0.0
 40
1.25
100
AcDbArc
 50
90.0
 51
270.0
  0
ARC
  5
3D0
102
{ACAD_REACTORS
330
3CF
102
}
330
1F
100
AcDbEntity
  8
LAYER-141
  6
Continuous
 62
     6
100
AcDbCircle
 10
40.0
 20
-77.75
 30
0.0
 40
1.25
100
AcDbArc
 50
90.0
 51
270.0
  0
ARC
  5
3D1
102
{ACAD_REACTORS
330
3CF
102
}
330
1F
100
AcDbEntity
  8
LAYER-141
  6
Continuous
 62
     6
100
AcDbCircle
 10
40.0
 20
-72.75
 30
0.0
 40
1.25
100
AcDbArc
 50
90.0
 51
270.0
  0
ARC
  5
3D2
102
{ACAD_REACTORS
330
3CF
102
}
330
1F
100
AcDbEntity
  8
LAYER-141
  6
Continuous
 62
     6
100
AcDbCircle
 10
40.0
 20
-70.25
 30
0.0
 40
1.25
100
AcDbArc
 50
90.0
 51
270.0
  0
ARC
  5
3D3
102
{ACAD_REACTORS
330
3CF
102
}
330
1F
100
AcDbEntity
  8
LAYER-141
  6
Continuous
 62
     6
100
AcDbCircle
 10
40.0
 20
-75.25
 30
0.0
 40
1.25
100
AcDbArc
 50
90.0
 51
270.0
  0
LINE
  5
3D4
102
{ACAD_REACTORS
330
3CF
102
}
330
1F
100
AcDbEntity
  8
LAYER-138
  6
Continuous
 62
     6
100
AcDbLine
 10
40.0
 20
-69.0
 30
0.0
 11
40.0
 21
-66.5
 31
0.0
  0
LINE
  5
3D5
102
{ACAD_REACTORS
330
3CF
102
}
330
1F
100
AcDbEntity
  8
LAYER-138
  6
Continuous
 62
     6
100
AcDbLine
 10
40.0
 20
-79.0
 30
0.0
 11
40.0
 21
-81.5
 31
0.0
  0
LINE
  5
3D7
102
{ACAD_REACTORS
330
3D6
102
}
330
1F
100
AcDbEntity
  8
LAYER-141
  6
Continuous
 62
     6
100
AcDbLine
 10
27.04
 20
-81.16
 30
0.0
 11
30.0
 21
-87.5
 31
0.0
  0
LINE
  5
3D8
102
{ACAD_REACTORS
330
3D6
102
}
330
1F
100
AcDbEntity
  8
LAYER-141
  6
Continuous
 62
     6
100
AcDbLine
 10
30.0
 20
-81.5
 30
0.0
 11
30.0
 21
-79.0
 31
0.0
  0
ARC
  5
3D9
102
{ACAD_REACTORS
330
3D6
102
}
330
1F
100
AcDbEntity
  8
LAYER-138
  6
Continuous
 62
     6
100
AcDbCircle
 10
30.0
 20
-80.5
 30
0.0
 40
1.0
100
AcDbArc
 50
90.0
 51
270.0
  0
LINE
  5
3DA
102
{ACAD_REACTORS
330
3D6
102
}
330
1F
100
AcDbEntity
  8
LAYER-141
  6
Continuous
 62
     6
100
AcDbLine
 10
30.0
 20
-89.0
 30
0.0
 11
30.0
 21
-87.5
 31
0.0
  0
TEXT
  5
3DB
102
{ACAD_REACTORS
330
3D6
102
}
330
1F
100
AcDbEntity
  8
LAYER-194
  6
Continuous
 62
     2
100
AcDbText
 10
32.0
 20
-85.0
 30
0.0
 40
3.0
  1
42-2
 41
1.2
  7
STRING_H
 11
32.0
 21
-83.5
 31
0.0
100
AcDbText
 73
     2
  0
CIRCLE
  5
3DD
102
{ACAD_REACTORS
330
3DC
102
}
330
1F
100
AcDbEntity
  8
LAYER-120
  6
Continuous
 62
     1
100
AcDbCircle
 10
45.0
 20
-93.0
 30
0.0
 40
1.0
  0
TEXT
  5
3DE
102
{ACAD_REACTORS
330
3DC
102
}
330
1F
100
AcDbEntity
  8
LAYER-210
  6
Continuous
 62
     2
100
AcDbText
 10
46.5
 20
-92.5
 30
0.0
 40
2.5
  1
50%
 41
2.0
  7
STRING_H
 11
46.5
 21
-92.5
 31
0.0
100
AcDbText
 73
     1
  0
ARC
  5
3E0
102
{ACAD_REACTORS
330
3DF
102
}
330
1F
100
AcDbEntity
  8
LAYER-141
  6
Continuous
 62
     6
100
AcDbCircle
 10
40.0
 20
-99.25
 30
0.0
 40
1.25
100
AcDbArc
 50
90.0
 51
270.0
  0
ARC
  5
3E1
102
{ACAD_REACTORS
330
3DF
102
}
330
1F
100
AcDbEntity
  8
LAYER-141
  6
Continuous
 62
     6
100
AcDbCircle
 10
40.0
 20
-94.25
 30
0.0
 40
1.25
100
AcDbArc
 50
90.0
 51
270.0
  0
ARC
  5
3E2
102
{ACAD_REACTORS
330
3DF
102
}
330
1F
100
AcDbEntity
  8
LAYER-141
  6
Continuous
 62
     6
100
AcDbCircle
 10
40.0
 20
-91.75
 30
0.0
 40
1.25
100
AcDbArc
 50
90.0
 51
270.0
  0
ARC
  5
3E3
102
{ACAD_REACTORS
330
3DF
102
}
330
1F
100
AcDbEntity
  8
LAYER-141
  6
Continuous
 62
     6
100
AcDbCircle
 10
40.0
 20
-96.75
 30
0.0
 40
1.25
100
AcDbArc
 50
90.0
 51
270.0
  0
LINE
  5
3E4
102
{ACAD_REACTORS
330
3DF
102
}
330
1F
100
AcDbEntity
  8
LAYER-138
  6
Continuous
 62
     6
100
AcDbLine
 10
40.0
 20
-90.5
 30
0.0
 11
40.0
 21
-88.0
 31
0.0
  0
LINE
  5
3E5
102
{ACAD_REACTORS
330
3DF
102
}
330
1F
100
AcDbEntity
  8
LAYER-138
  6
Continuous
 62
     6
100
AcDbLine
 10
40.0
 20
-100.5
 30
0.0
 11
40.0
 21
-103.0
 31
0.0
  0
CIRCLE
  5
3E7
102
{ACAD_REACTORS
330
3E6
102
}
330
1F
100
AcDbEntity
  8
LAYER-120
  6
Continuous
 62
     1
100
AcDbCircle
 10
45.0
 20
-98.0
 30
0.0
 40
1.0
  0
TEXT
  5
3E8
102
{ACAD_REACTORS
330
3E6
102
}
330
1F
100
AcDbEntity
  8
LAYER-210
  6
Continuous
 62
     2
100
AcDbText
 10
46.5
 20
-97.5
 30
0.0
 40
2.5
  1
45%
 41
2.0
  7
STRING_H
 11
46.5
 21
-97.5
 31
0.0
100
AcDbText
 73
     1
  0
CIRCLE
  5
3EA
102
{ACAD_REACTORS
330
3E9
102
}
330
1F
100
AcDbEntity
  8
LAYER-120
  6
Continuous
 62
     1
100
AcDbCircle
 10
40.0
 20
-104.0
 30
0.0
 40
1.0
  0
LINE
  5
3EC
102
{ACAD_REACTORS
330
3EB
102
}
330
1F
100
AcDbEntity
  8
LAYER-141
  6
Continuous
 62
     6
100
AcDbLine
 10
37.04
 20
-108.66
 30
0.0
 11
40.0
 21
-115.0
 31
0.0
  0
LINE
  5
3ED
102
{ACAD_REACTORS
330
3EB
102
}
330
1F
100
AcDbEntity
  8
LAYER-141
  6
Continuous
 62
     6
100
AcDbLine
 10
40.0
 20
-109.0
 30
0.0
 11
40.0
 21
-106.5
 31
0.0
  0
ARC
  5
3EE
102
{ACAD_REACTORS
330
3EB
102
}
330
1F
100
AcDbEntity
  8
LAYER-138
  6
Continuous
 62
     6
100
AcDbCircle
 10
40.0
 20
-108.0
 30
0.0
 40
1.0
100
AcDbArc
 50
90.0
 51
270.0
  0
LINE
  5
3EF
102
{ACAD_REACTORS
330
3EB
102
}
330
1F
100
AcDbEntity
  8
LAYER-141
  6
Continuous
 62
     6
100
AcDbLine
 10
40.0
 20
-116.5
 30
0.0
 11
40.0
 21
-115.0
 31
0.0
  0
TEXT
  5
3F0
102
{ACAD_REACTORS
330
3EB
102
}
330
1F
100
AcDbEntity
  8
LAYER-194
  6
Continuous
 62
     2
100
AcDbText
 10
42.0
 20
-112.5
 30
0.0
 40
3.0
  1
6
 41
1.2
  7
STRING_H
 11
42.0
 21
-111.0
 31
0.0
100
AcDbText
 73
     2
  0
CIRCLE
  5
3F2
102
{ACAD_REACTORS
330
3F1
102
}
330
1F
100
AcDbEntity
  8
LAYER-138
  6
Continuous
 62
     4
100
AcDbCircle
 10
60.0
 20
-116.5
 30
0.0
 40
1.25
  0
CIRCLE
  5
3F3
102
{ACAD_REACTORS
330
3F1
102
}
330
1F
100
AcDbEntity
  8
LAYER-138
  6
Continuous
 62
     4
100
AcDbCircle
 10
60.0
 20
-116.5
 30
0.0
 40
0.75
  0
CIRCLE
  5
3F4
102
{ACAD_REACTORS
330
3F1
102
}
330
1F
100
AcDbEntity
  8
LAYER-138
  6
Continuous
 62
     7
100
AcDbCircle
 10
60.0
 20
-116.5
 30
0.0
 40
0.75
  0
TEXT
  5
3F5
102
{ACAD_REACTORS
330
3F1
102
}
330
1F
100
AcDbEntity
  8
LAYER-210
  6
Continuous
 62
     2
100
AcDbText
 10
49.125
 20
-123.0
 30
0.0
 40
3.0
  1
U.V.W
 41
2.0
  7
STRING_H
 72
     1
 11
60.0
 21
-121.5
 31
0.0
100
AcDbText
 73
     2
  0
LINE
  5
3F7
102
{ACAD_REACTORS
330
3F6
102
}
330
1F
100
AcDbEntity
  8
LAYER-120
  6
Continuous
 62
     6
100
AcDbLine
 10
60.0
 20
-31.0
 30
0.0
 11
60.0
 21
-30.0
 31
0.0
  0
LINE
  5
3F8
102
{ACAD_REACTORS
330
3F6
102
}
330
1F
100
AcDbEntity
  8
LAYER-120
  6
Continuous
 62
     6
100
AcDbLine
 10
59.25
 20
-30.25
 30
0.0
 11
60.75
 21
-31.75
 31
0.0
  0
LINE
  5
3F9
102
{ACAD_REACTORS
330
3F6
102
}
330
1F
100
AcDbEntity
  8
LAYER-120
  6
Continuous
 62
     6
100
AcDbLine
 10
59.25
 20
-31.75
 30
0.0
 11
60.75
 21
-30.25
 31
0.0
  0
LINE
  5
3FA
102
{ACAD_REACTORS
330
3F6
102
}
330
1F
100
AcDbEntity
  8
LAYER-120
  6
Continuous
 62
     6
100
AcDbLine
 10
57.04
 20
-31.16
 30
0.0
 11
60.0
 21
-37.5
 31
0.0
  0
LINE
  5
3FB
102
{ACAD_REACTORS
330
3F6
102
}
330
1F
100
AcDbEntity
  8
LAYER-120
  6
Continuous
 62
     6
100
AcDbLine
 10
60.0
 20
-38.0
 30
0.0
 11
60.0
 21
-37.5
 31
0.0
  0
TEXT
  5
3FC
102
{ACAD_REACTORS
330
3F6
102
}
330
1F
100
AcDbEntity
  8
LAYER-194
  6
Continuous
 62
     2
100
AcDbText
 10
62.0
 20
-35.0
 30
0.0
 40
3.0
  1
MCCB
 41
1.2
  7
STRING_H
 11
62.0
 21
-33.5
 31
0.0
100
AcDbText
 73
     2
  0
CIRCLE
  5
3FE
102
{ACAD_REACTORS
330
3FD
102
}
330
1F
100
AcDbEntity
  8
LAYER-138
  6
Continuous
 62
     4
100
AcDbCircle
 10
160.0
 20
-21.5
 30
0.0
 40
1.25
  0
CIRCLE
  5
3FF
102
{ACAD_REACTORS
330
3FD
102
}
330
1F
100
AcDbEntity
  8
LAYER-138
  6
Continuous
 62
     4
100
AcDbCircle
 10
160.0
 20
-21.5
 30
0.0
 40
0.75
  0
CIRCLE
  5
400
102
{ACAD_REACTORS
330
3FD
102
}
330
1F
100
AcDbEntity
  8
LAYER-138
  6
Continuous
 62
     7
100
AcDbCircle
 10
160.0
 20
-21.5
 30
0.0
 40
0.75
  0
TEXT
  5
401
102
{ACAD_REACTORS
330
3FD
102
}
330
1F
100
AcDbEntity
  8
LAYER-210
  6
Continuous
 62
     2
100
AcDbText
 10
149.125
 20
-19.25
 30
0.0
 40
3.0
  1
R.S.T
 41
2.0
  7
STRING_H
 72
     1
 11
160.0
 21
-17.75
 31
0.0
100
AcDbText
 73
     2
  0
LINE
  5
403
102
{ACAD_REACTORS
330
402
102
}
330
1F
100
AcDbEntity
  8
LAYER-141
  6
Continuous
 62
     6
100
AcDbLine
 10
137.04
 20
-51.16
 30
0.0
 11
140.0
 21
-57.5
 31
0.0
  0
LINE
  5
404
102
{ACAD_REACTORS
330
402
102
}
330
1F
100
AcDbEntity
  8
LAYER-141
  6
Continuous
 62
     6
100
AcDbLine
 10
140.0
 20
-51.5
 30
0.0
 11
140.0
 21
-49.0
 31
0.0
  0
ARC
  5
405
102
{ACAD_REACTORS
330
402
102
}
330
1F
100
AcDbEntity
  8
LAYER-138
  6
Continuous
 62
     6
100
AcDbCircle
 10
140.0
 20
-50.5
 30
0.0
 40
1.0
100
AcDbArc
 50
90.0
 51
270.0
  0
LINE
  5
406
102
{ACAD_REACTORS
330
402
102
}
330
1F
100
AcDbEntity
  8
LAYER-141
  6
Continuous
 62
     6
100
AcDbLine
 10
140.0
 20
-59.0
 30
0.0
 11
140.0
 21
-57.5
 31
0.0
  0
TEXT
  5
407
102
{ACAD_REACTORS
330
402
102
}
330
1F
100
AcDbEntity
  8
LAYER-194
  6
Continuous
 62
     2
100
AcDbText
 10
142.0
 20
-55.0
 30
0.0
 40
3.0
  1
42-1
 41
1.2
  7
STRING_H
 11
142.0
 21
-53.5
 31
0.0
100
AcDbText
 73
     2
  0
LINE
  5
409
102
{ACAD_REACTORS
330
408
102
}
330
1F
100
AcDbEntity
  8
LAYER-141
  6
Continuous
 62
     6
100
AcDbLine
 10
157.04
 20
-51.16
 30
0.0
 11
160.0
 21
-57.5
 31
0.0
  0
LINE
  5
40A
102
{ACAD_REACTORS
330
408
102
}
330
1F
100
AcDbEntity
  8
LAYER-141
  6
Continuous
 62
     6
100
AcDbLine
 10
160.0
 20
-51.5
 30
0.0
 11
160.0
 21
-49.0
 31
0.0
  0
ARC
  5
40B
102
{ACAD_REACTORS
330
408
102
}
330
1F
100
AcDbEntity
  8
LAYER-138
  6
Continuous
 62
     6
100
AcDbCircle
 10
160.0
 20
-50.5
 30
0.0
 40
1.0
100
AcDbArc
 50
90.0
 51
270.0
  0
LINE
  5
40C
102
{ACAD_REACTORS
330
408
102
}
330
1F
100
AcDbEntity
  8
LAYER-141
  6
Continuous
 62
     6
100
AcDbLine
 10
160.0
 20
-59.0
 30
0.0
 11
160.0
 21
-57.5
 31
0.0
  0
TEXT
  5
40D
102
{ACAD_REACTORS
330
408
102
}
330
1F
100
AcDbEntity
  8
LAYER-194
  6
Continuous
 62
     2
100
AcDbText
 10
162.0
 20
-55.0
 30
0.0
 40
3.0
  1
52
 41
1.2
  7
STRING_H
 11
162.0
 21
-53.5
 31
0.0
100
AcDbText
 73
     2
  0
CIRCLE
  5
40F
102
{ACAD_REACTORS
330
40E
102
}
330
1F
100
AcDbEntity
  8
LAYER-120
  6
Continuous
 62
     1
100
AcDbCircle
 10
140.0
 20
-61.5
 30
0.0
 40
1.0
  0
ARC
  5
411
102
{ACAD_REACTORS
330
410
102
}
330
1F
100
AcDbEntity
  8
LAYER-141
  6
Continuous
 62
     6
100
AcDbCircle
 10
136.25
 20
-75.25
 30
0.0
 40
1.25
100
AcDbArc
 50
270.0
 51
90.0
  0
ARC
  5
412
102
{ACAD_REACTORS
330
410
102
}
330
1F
100
AcDbEntity
  8
LAYER-141
  6
Continuous
 62
     6
100
AcDbCircle
 10
136.25
 20
-70.25
 30
0.0
 40
1.25
100
AcDbArc
 50
270.0
 51
90.0
  0
ARC
  5
413
102
{ACAD_REACTORS
330
410
102
}
330
1F
100
AcDbEntity
  8
LAYER-141
  6
Continuous
 62
     6
100
AcDbCircle
 10
136.25
 20
-77.75
 30
0.0
 40
1.25
100
AcDbArc
 50
270.0
 51
90.0
  0
ARC
  5
414
102
{ACAD_REACTORS
330
410
102
}
330
1F
100
AcDbEntity
  8
LAYER-141
  6
Continuous
 62
     6
100
AcDbCircle
 10
136.25
 20
-72.75
 30
0.0
 40
1.25
100
AcDbArc
 50
270.0
 51
90.0
  0
ARC
  5
416
102
{ACAD_REACTORS
330
415
102
}
330
1F
100
AcDbEntity
  8
LAYER-141
  6
Continuous
 62
     6
100
AcDbCircle
 10
140.0
 20
-77.75
 30
0.0
 40
1.25
100
AcDbArc
 50
90.0
 51
270.0
  0
ARC
  5
417
102
{ACAD_REACTORS
330
415
102
}
330
1F
100
AcDbEntity
  8
LAYER-141
  6
Continuous
 62
     6
100
AcDbCircle
 10
140.0
 20
-72.75
 30
0.0
 40
1.25
100
AcDbArc
 50
90.0
 51
270.0
  0
ARC
  5
418
102
{ACAD_REACTORS
330
415
102
}
330
1F
100
AcDbEntity
  8
LAYER-141
  6
Continuous
 62
     6
100
AcDbCircle
 10
140.0
 20
-70.25
 30
0.0
 40
1.25
100
AcDbArc
 50
90.0
 51
270.0
  0
ARC
  5
419
102
{ACAD_REACTORS
330
415
102
}
330
1F
100
AcDbEntity
  8
LAYER-141
  6
Continuous
 62
     6
100
AcDbCircle
 10
140.0
 20
-75.25
 30
0.0
 40
1.25
100
AcDbArc
 50
90.0
 51
270.0
  0
LINE
  5
41A
102
{ACAD_REACTORS
330
415
102
}
330
1F
100
AcDbEntity
  8
LAYER-138
  6
Continuous
 62
     6
100
AcDbLine
 10
140.0
 20
-69.0
 30
0.0
 11
140.0
 21
-66.5
 31
0.0
  0
LINE
  5
41B
102
{ACAD_REACTORS
330
415
102
}
330
1F
100
AcDbEntity
  8
LAYER-138
  6
Continuous
 62
     6
100
AcDbLine
 10
140.0
 20
-79.0
 30
0.0
 11
140.0
 21
-81.5
 31
0.0
  0
LINE
  5
41D
102
{ACAD_REACTORS
330
41C
102
}
330
1F
100
AcDbEntity
  8
LAYER-141
  6
Continuous
 62
     6
100
AcDbLine
 10
127.04
 20
-72.41
 30
0.0
 11
130.0
 21
-78.75
 31
0.0
  0
LINE
  5
41E
102
{ACAD_REACTORS
330
41C
102
}
330
1F
100
AcDbEntity
  8
LAYER-141
  6
Continuous
 62
     6
100
AcDbLine
 10
130.0
 20
-72.75
 30
0.0
 11
130.0
 21
-70.25
 31
0.0
  0
ARC
  5
41F
102
{ACAD_REACTORS
330
41C
102
}
330
1F
100
AcDbEntity
  8
LAYER-138
  6
Continuous
 62
     6
100
AcDbCircle
 10
130.0
 20
-71.75
 30
0.0
 40
1.0
100
AcDbArc
 50
90.0
 51
270.0
  0
LINE
  5
420
102
{ACAD_REACTORS
330
41C
102
}
330
1F
100
AcDbEntity
  8
LAYER-141
  6
Continuous
 62
     6
100
AcDbLine
 10
130.0
 20
-80.25
 30
0.0
 11
130.0
 21
-78.75
 31
0.0
  0
TEXT
  5
421
102
{ACAD_REACTORS
330
41C
102
}
330
1F
100
AcDbEntity
  8
LAYER-194
  6
Continuous
 62
     2
100
AcDbText
 10
118.75
 20
-76.25
 30
0.0
 40
3.0
  1
42-2
 41
1.2
  7
STRING_H
 11
118.75
 21
-74.75
 31
0.0
100
AcDbText
 73
     2
  0
CIRCLE
  5
423
102
{ACAD_REACTORS
330
422
102
}
330
1F
100
AcDbEntity
  8
LAYER-120
  6
Continuous
 62
     1
100
AcDbCircle
 10
145.0
 20
-93.0
 30
0.0
 40
1.0
  0
TEXT
  5
424
102
{ACAD_REACTORS
330
422
102
}
330
1F
100
AcDbEntity
  8
LAYER-210
  6
Continuous
 62
     2
100
AcDbText
 10
146.5
 20
-92.5
 30
0.0
 40
2.5
  1
50%
 41
2.0
  7
STRING_H
 11
146.5
 21
-92.5
 31
0.0
100
AcDbText
 73
     1
  0
ARC
  5
426
102
{ACAD_REACTORS
330
425
102
}
330
1F
100
AcDbEntity
  8
LAYER-141
  6
Continuous
 62
     6
100
AcDbCircle
 10
140.0
 20
-99.25
 30
0.0
 40
1.25
100
AcDbArc
 50
90.0
 51
270.0
  0
ARC
  5
427
102
{ACAD_REACTORS
330
425
102
}
330
1F
100
AcDbEntity
  8
LAYER-141
  6
Continuous
 62
     6
100
AcDbCircle
 10
140.0
 20
-94.25
 30
0.0
 40
1.25
100
AcDbArc
 50
90.0
 51
270.0
  0
ARC
  5
428
102
{ACAD_REACTORS
330
425
102
}
330
1F
100
AcDbEntity
  8
LAYER-141
  6
Continuous
 62
     6
100
AcDbCircle
 10
140.0
 20
-91.75
 30
0.0
 40
1.25
100
AcDbArc
 50
90.0
 51
270.0
  0
ARC
  5
429
102
{ACAD_REACTORS
330
425
102
}
330
1F
100
AcDbEntity
  8
LAYER-141
  6
Continuous
 62
     6
100
AcDbCircle
 10
140.0
 20
-96.75
 30
0.0
 40
1.25
100
AcDbArc
 50
90.0
 51
270.0
  0
LINE
  5
42A
102
{ACAD_REACTORS
330
425
102
}
330
1F
100
AcDbEntity
  8
LAYER-138
  6
Continuous
 62
     6
100
AcDbLine
 10
140.0
 20
-90.5
 30
0.0
 11
140.0
 21
-88.0
 31
0.0
  0
LINE
  5
42B
102
{ACAD_REACTORS
330
425
102
}
330
1F
100
AcDbEntity
  8
LAYER-138
  6
Continuous
 62
     6
100
AcDbLine
 10
140.0
 20
-100.5
 30
0.0
 11
140.0
 21
-103.0
 31
0.0
  0
CIRCLE
  5
42D
102
{ACAD_REACTORS
330
42C
102
}
330
1F
100
AcDbEntity
  8
LAYER-120
  6
Continuous
 62
     1
100
AcDbCircle
 10
145.0
 20
-98.0
 30
0.0
 40
1.0
  0
TEXT
  5
42E
102
{ACAD_REACTORS
330
42C
102
}
330
1F
100
AcDbEntity
  8
LAYER-210
  6
Continuous
 62
     2
100
AcDbText
 10
146.5
 20
-97.5
 30
0.0
 40
2.5
  1
45%
 41
2.0
  7
STRING_H
 11
146.5
 21
-97.5
 31
0.0
100
AcDbText
 73
     1
  0
CIRCLE
  5
430
102
{ACAD_REACTORS
330
42F
102
}
330
1F
100
AcDbEntity
  8
LAYER-138
  6
Continuous
 62
     4
100
AcDbCircle
 10
160.0
 20
-116.5
 30
0.0
 40
1.25
  0
CIRCLE
  5
431
102
{ACAD_REACTORS
330
42F
102
}
330
1F
100
AcDbEntity
  8
LAYER-138
  6
Continuous
 62
     4
100
AcDbCircle
 10
160.0
 20
-116.5
 30
0.0
 40
0.75
  0
CIRCLE
  5
432
102
{ACAD_REACTORS
330
42F
102
}
330
1F
100
AcDbEntity
  8
LAYER-138
  6
Continuous
 62
     7
100
AcDbCircle
 10
160.0
 20
-116.5
 30
0.0
 40
0.75
  0
TEXT
  5
433
102
{ACAD_REACTORS
330
42F
102
}
330
1F
100
AcDbEntity
  8
LAYER-210
  6
Continuous
 62
     2
100
AcDbText
 10
149.125
 20
-123.0
 30
0.0
 40
3.0
  1
U.V.W
 41
2.0
  7
STRING_H
 72
     1
 11
160.0
 21
-121.5
 31
0.0
100
AcDbText
 73
     2
  0
CIRCLE
  5
435
102
{ACAD_REACTORS
330
434
102
}
330
1F
100
AcDbEntity
  8
LAYER-120
  6
Continuous
 62
     1
100
AcDbCircle
 10
140.0
 20
-104.0
 30
0.0
 40
1.0
  0
LINE
  5
437
102
{ACAD_REACTORS
330
436
102
}
330
1F
100
AcDbEntity
  8
LAYER-141
  6
Continuous
 62
     6
100
AcDbLine
 10
137.04
 20
-108.66
 30
0.0
 11
140.0
 21
-115.0
 31
0.0
  0
LINE
  5
438
102
{ACAD_REACTORS
330
436
102
}
330
1F
100
AcDbEntity
  8
LAYER-141
  6
Continuous
 62
     6
100
AcDbLine
 10
140.0
 20
-109.0
 30
0.0
 11
140.0
 21
-106.5
 31
0.0
  0
ARC
  5
439
102
{ACAD_REACTORS
330
436
102
}
330
1F
100
AcDbEntity
  8
LAYER-138
  6
Continuous
 62
     6
100
AcDbCircle
 10
140.0
 20
-108.0
 30
0.0
 40
1.0
100
AcDbArc
 50
90.0
 51
270.0
  0
LINE
  5
43A
102
{ACAD_REACTORS
330
436
102
}
330
1F
100
AcDbEntity
  8
LAYER-141
  6
Continuous
 62
     6
100
AcDbLine
 10
140.0
 20
-116.5
 30
0.0
 11
140.0
 21
-115.0
 31
0.0
  0
TEXT
  5
43B
102
{ACAD_REACTORS
330
436
102
}
330
1F
100
AcDbEntity
  8
LAYER-194
  6
Continuous
 62
     2
100
AcDbText
 10
142.0
 20
-112.5
 30
0.0
 40
3.0
  1
6
 41
1.2
  7
STRING_H
 11
142.0
 21
-111.0
 31
0.0
100
AcDbText
 73
     2
  0
LINE
  5
43D
102
{ACAD_REACTORS
330
43C
102
}
330
1F
100
AcDbEntity
  8
LAYER-141
  6
Continuous
 62
     6
100
AcDbLine
 10
160.75
 20
-31.0
 30
0.0
 11
159.25
 21
-31.0
 31
0.0
  0
LINE
  5
43E
102
{ACAD_REACTORS
330
43C
102
}
330
1F
100
AcDbEntity
  8
LAYER-141
  6
Continuous
 62
     6
100
AcDbLine
 10
160.0
 20
-31.0
 30
0.0
 11
160.0
 21
-30.0
 31
0.0
  0
LINE
  5
43F
102
{ACAD_REACTORS
330
43C
102
}
330
1F
100
AcDbEntity
  8
LAYER-141
  6
Continuous
 62
     6
100
AcDbLine
 10
157.04
 20
-31.16
 30
0.0
 11
160.0
 21
-37.5
 31
0.0
  0
LINE
  5
440
102
{ACAD_REACTORS
330
43C
102
}
330
1F
100
AcDbEntity
  8
LAYER-141
  6
Continuous
 62
     6
100
AcDbLine
 10
160.0
 20
-42.75
 30
0.0
 11
160.0
 21
-37.5
 31
0.0
  0
LINE
  5
441
102
{ACAD_REACTORS
330
43C
102
}
330
1F
100
AcDbEntity
  8
LAYER-141
  6
Continuous
 62
     6
100
AcDbLine
 10
158.46
 20
-32.42
 30
0.0
 11
159.94
 21
-35.6
 31
0.0
  0
LINE
  5
442
102
{ACAD_REACTORS
330
43C
102
}
330
1F
100
AcDbEntity
  8
LAYER-141
  6
Continuous
 62
     6
100
AcDbLine
 10
157.1
 20
-33.06
 30
0.0
 11
158.58
 21
-36.23
 31
0.0
  0
LINE
  5
443
102
{ACAD_REACTORS
330
43C
102
}
330
1F
100
AcDbEntity
  8
LAYER-141
  6
Continuous
 62
     6
100
AcDbLine
 10
157.1
 20
-33.06
 30
0.0
 11
158.46
 21
-32.42
 31
0.0
  0
LINE
  5
444
102
{ACAD_REACTORS
330
43C
102
}
330
1F
100
AcDbEntity
  8
LAYER-141
  6
Continuous
 62
     6
100
AcDbLine
 10
158.58
 20
-36.23
 30
0.0
 11
159.94
 21
-35.6
 31
0.0
  0
TEXT
  5
445
102
{ACAD_REACTORS
330
43C
102
}
330
1F
100
AcDbEntity
  8
LAYER-194
  6
Continuous
 62
     2
100
AcDbText
 10
162.0
 20
-35.0
 30
0.0
 40
3.0
  1
PF
 41
1.2
  7
STRING_H
 11
162.0
 21
-33.5
 31
0.0
100
AcDbText
 73
     2
  0
CIRCLE
  5
447
102
{ACAD_REACTORS
330
446
102
}
330
1F
100
AcDbEntity
  8
LAYER-120
  6
Continuous
 62
     1
100
AcDbCircle
 10
-52.5
 20
61.0
 30
0.0
 40
1.0
  0
CIRCLE
  5
449
102
{ACAD_REACTORS
330
448
102
}
330
1F
100
AcDbEntity
  8
LAYER-120
  6
Continuous
 62
     1
100
AcDbCircle
 10
-52.5
 20
53.5
 30
0.0
 40
1.0
  0
CIRCLE
  5
44B
102
{ACAD_REACTORS
330
44A
102
}
330
1F
100
AcDbEntity
  8
LAYER-120
  6
Continuous
 62
     1
100
AcDbCircle
 10
-52.5
 20
46.0
 30
0.0
 40
1.0
  0
LINE
  5
44D
102
{ACAD_REACTORS
330
44C
102
}
330
1F
100
AcDbEntity
  8
LAYER-141
  6
Continuous
 62
     6
100
AcDbLine
 10
-150.46
 20
-78.66
 30
0.0
 11
-147.5
 21
-85.0
 31
0.0
  0
LINE
  5
44E
102
{ACAD_REACTORS
330
44C
102
}
330
1F
100
AcDbEntity
  8
LAYER-141
  6
Continuous
 62
     6
100
AcDbLine
 10
-147.5
 20
-79.0
 30
0.0
 11
-147.5
 21
-76.5
 31
0.0
  0
ARC
  5
44F
102
{ACAD_REACTORS
330
44C
102
}
330
1F
100
AcDbEntity
  8
LAYER-138
  6
Continuous
 62
     6
100
AcDbCircle
 10
-147.5
 20
-78.0
 30
0.0
 40
1.0
100
AcDbArc
 50
90.0
 51
270.0
  0
LINE
  5
450
102
{ACAD_REACTORS
330
44C
102
}
330
1F
100
AcDbEntity
  8
LAYER-141
  6
Continuous
 62
     6
100
AcDbLine
 10
-147.5
 20
-86.5
 30
0.0
 11
-147.5
 21
-85.0
 31
0.0
  0
TEXT
  5
451
102
{ACAD_REACTORS
330
44C
102
}
330
1F
100
AcDbEntity
  8
LAYER-194
  6
Continuous
 62
     2
100
AcDbText
 10
-145.5
 20
-82.5
 30
0.0
 40
3.0
  1
42-2
 41
1.2
  7
STRING_H
 11
-145.5
 21
-81.0
 31
0.0
100
AcDbText
 73
     2
  0
LINE
  5
453
102
{ACAD_REACTORS
330
452
102
}
330
1F
100
AcDbEntity
  8
LAYER-141
  6
Continuous
 62
     6
100
AcDbLine
 10
-67.95999999999999
 20
-78.66
 30
0.0
 11
-65.0
 21
-85.0
 31
0.0
  0
LINE
  5
454
102
{ACAD_REACTORS
330
452
102
}
330
1F
100
AcDbEntity
  8
LAYER-141
  6
Continuous
 62
     6
100
AcDbLine
 10
-65.0
 20
-79.0
 30
0.0
 11
-65.0
 21
-76.5
 31
0.0
  0
ARC
  5
455
102
{ACAD_REACTORS
330
452
102
}
330
1F
100
AcDbEntity
  8
LAYER-138
  6
Continuous
 62
     6
100
AcDbCircle
 10
-65.0
 20
-78.0
 30
0.0
 40
1.0
100
AcDbArc
 50
90.0
 51
270.0
  0
LINE
  5
456
102
{ACAD_REACTORS
330
452
102
}
330
1F
100
AcDbEntity
  8
LAYER-141
  6
Continuous
 62
     6
100
AcDbLine
 10
-65.0
 20
-86.5
 30
0.0
 11
-65.0
 21
-85.0
 31
0.0
  0
TEXT
  5
457
102
{ACAD_REACTORS
330
452
102
}
330
1F
100
AcDbEntity
  8
LAYER-194
  6
Continuous
 62
     2
100
AcDbText
 10
-63.0
 20
-82.5
 30
0.0
 40
3.0
  1
42-2
 41
1.2
  7
STRING_H
 11
-63.0
 21
-81.0
 31
0.0
100
AcDbText
 73
     2
  0
LINE
  5
459
102
{ACAD_REACTORS
330
458
102
}
330
1F
100
AcDbEntity
  8
LAYER-141
  6
Continuous
 62
     6
100
AcDbLine
 10
-27.96
 20
-91.16
 30
0.0
 11
-25.0
 21
-97.5
 31
0.0
  0
LINE
  5
45A
102
{ACAD_REACTORS
330
458
102
}
330
1F
100
AcDbEntity
  8
LAYER-141
  6
Continuous
 62
     6
100
AcDbLine
 10
-25.0
 20
-91.5
 30
0.0
 11
-25.0
 21
-89.0
 31
0.0
  0
ARC
  5
45B
102
{ACAD_REACTORS
330
458
102
}
330
1F
100
AcDbEntity
  8
LAYER-138
  6
Continuous
 62
     6
100
AcDbCircle
 10
-25.0
 20
-90.5
 30
0.0
 40
1.0
100
AcDbArc
 50
90.0
 51
270.0
  0
LINE
  5
45C
102
{ACAD_REACTORS
330
458
102
}
330
1F
100
AcDbEntity
  8
LAYER-141
  6
Continuous
 62
     6
100
AcDbLine
 10
-25.0
 20
-99.0
 30
0.0
 11
-25.0
 21
-97.5
 31
0.0
  0
TEXT
  5
45D
102
{ACAD_REACTORS
330
458
102
}
330
1F
100
AcDbEntity
  8
LAYER-194
  6
Continuous
 62
     2
100
AcDbText
 10
-23.0
 20
-95.0
 30
0.0
 40
3.0
  1
42-1
 41
1.2
  7
STRING_H
 11
-23.0
 21
-93.5
 31
0.0
100
AcDbText
 73
     2
  0
TEXT
  5
45E
330
1F
100
AcDbEntity
  8
LAYER-001
  6
Continuous
 62
     7
100
AcDbText
 10
92.0
 20
131.0
 30
0.0
 40
5.0
  1
Ｃスター高圧リアクトル始動主回路
  7
STRING_H
 72
     1
 11
150.0
 21
133.5
 31
0.0
100
AcDbText
 73
     2
  0
TEXT
  5
45F
330
1F
100
AcDbEntity
  8
LAYER-001
  6
Continuous
 62
     7
100
AcDbText
 10
-8.0
 20
131.0
 30
0.0
 40
5.0
  1
Ｃスター低圧リアクトル始動主回路
  7
STRING_H
 72
     1
 11
50.0
 21
133.5
 31
0.0
100
AcDbText
 73
     2
  0
TEXT
  5
460
330
1F
100
AcDbEntity
  8
LAYER-001
  6
Continuous
 62
     7
100
AcDbText
 10
119.125
 20
4.499999999999999
 30
0.0
 40
3.0
  1
電 動 機
  7
STRING_H
 72
     1
 11
130.0
 21
6.0
 31
0.0
100
AcDbText
 73
     2
  0
TEXT
  5
461
330
1F
100
AcDbEntity
  8
LAYER-001
  6
Continuous
 62
     7
100
AcDbText
 10
131.3
 20
64.5
 30
0.0
 40
3.0
  1
Ｃスター
  7
STRING_H
 72
     1
 11
140.0
 21
66.0
 31
0.0
100
AcDbText
 73
     2
  0
TEXT
  5
462
330
1F
100
AcDbEntity
  8
LAYER-001
  6
Continuous
 62
     7
100
AcDbText
 10
143.475
 20
117.0
 30
0.0
 40
3.0
  1
電　源
  7
STRING_H
 72
     1
 11
150.0
 21
118.5
 31
0.0
100
AcDbText
 73
     2
  0
TEXT
  5
463
330
1F
100
AcDbEntity
  8
LAYER-001
  6
Continuous
 62
     7
100
AcDbText
 10
33.8
 20
64.5
 30
0.0
 40
3.0
  1
Ｃスター
  7
STRING_H
 72
     1
 11
42.5
 21
66.0
 31
0.0
100
AcDbText
 73
     2
  0
TEXT
  5
464
330
1F
100
AcDbEntity
  8
LAYER-001
  6
Continuous
 62
     7
100
AcDbText
 10
45.975
 20
117.0
 30
0.0
 40
3.0
  1
電　源
  7
STRING_H
 72
     1
 11
52.5
 21
118.5
 31
0.0
100
AcDbText
 73
     2
  0
TEXT
  5
465
330
1F
100
AcDbEntity
  8
LAYER-001
  6
Continuous
 62
     7
100
AcDbText
 10
21.625
 20
4.499999999999999
 30
0.0
 40
3.0
  1
電 動 機
  7
STRING_H
 72
     1
 11
32.5
 21
6.0
 31
0.0
100
AcDbText
 73
     2
  0
TEXT
  5
466
330
1F
100
AcDbEntity
  8
LAYER-001
  6
Continuous
 62
     7
100
AcDbText
 10
-168.7
 20
62.0
 30
0.0
 40
3.0
  1
Ｒスター
  7
STRING_H
 72
     1
 11
-160.0
 21
63.5
 31
0.0
100
AcDbText
 73
     2
  0
TEXT
  5
467
330
1F
100
AcDbEntity
  8
LAYER-001
  6
Continuous
 62
     7
100
AcDbText
 10
-165.4375
 20
44.75
 30
0.0
 40
2.5
  1
６５％
  7
STRING_H
 72
     1
 11
-160.0
 21
46.0
 31
0.0
100
AcDbText
 73
     2
  0
TEXT
  5
468
330
1F
100
AcDbEntity
  8
LAYER-001
  6
Continuous
 62
     7
100
AcDbText
 10
-156.525
 20
117.0
 30
0.0
 40
3.0
  1
電　源
  7
STRING_H
 72
     1
 11
-150.0
 21
118.5
 31
0.0
100
AcDbText
 73
     2
  0
TEXT
  5
469
330
1F
100
AcDbEntity
  8
LAYER-001
  6
Continuous
 62
     7
100
AcDbText
 10
-160.875
 20
4.499999999999999
 30
0.0
 40
3.0
  1
電 動 機
  7
STRING_H
 72
     1
 11
-150.0
 21
6.0
 31
0.0
100
AcDbText
 73
     2
  0
TEXT
  5
46A
330
1F
100
AcDbEntity
  8
LAYER-001
  6
Continuous
 62
     7
100
AcDbText
 10
-208.0
 20
131.0
 30
0.0
 40
5.0
  1
Ｒスター低圧リアクトル始動主回路
  7
STRING_H
 72
     1
 11
-150.0
 21
133.5
 31
0.0
100
AcDbText
 73
     2
  0
TEXT
  5
46B
330
1F
100
AcDbEntity
  8
LAYER-001
  6
Continuous
 62
     7
100
AcDbText
 10
-72.9375
 20
59.75
 30
0.0
 40
2.5
  1
８０％
  7
STRING_H
 72
     1
 11
-67.5
 21
61.0
 31
0.0
100
AcDbText
 73
     2
  0
TEXT
  5
46C
330
1F
100
AcDbEntity
  8
LAYER-001
  6
Continuous
 62
     7
100
AcDbText
 10
-72.9375
 20
52.25
 30
0.0
 40
2.5
  1
６５％
  7
STRING_H
 72
     1
 11
-67.5
 21
53.5
 31
0.0
100
AcDbText
 73
     2
  0
TEXT
  5
46D
330
1F
100
AcDbEntity
  8
LAYER-001
  6
Continuous
 62
     7
100
AcDbText
 10
-72.9375
 20
44.75
 30
0.0
 40
2.5
  1
５０％
  7
STRING_H
 72
     1
 11
-67.5
 21
46.0
 31
0.0
100
AcDbText
 73
     2
  0
TEXT
  5
46E
330
1F
100
AcDbEntity
  8
LAYER-001
  6
Continuous
 62
     7
100
AcDbText
 10
-68.7
 20
72.0
 30
0.0
 40
3.0
  1
Ｎスター
  7
STRING_H
 72
     1
 11
-60.0
 21
73.5
 31
0.0
100
AcDbText
 73
     2
  0
TEXT
  5
46F
330
1F
100
AcDbEntity
  8
LAYER-001
  6
Continuous
 62
     7
100
AcDbText
 10
-68.375
 20
19.5
 30
0.0
 40
3.0
  1
電 動 機
  7
STRING_H
 72
     1
 11
-57.5
 21
21.0
 31
0.0
100
AcDbText
 73
     2
  0
TEXT
  5
470
330
1F
100
AcDbEntity
  8
LAYER-001
  6
Continuous
 62
     7
100
AcDbText
 10
-54.025
 20
117.0
 30
0.0
 40
3.0
  1
電　源
  7
STRING_H
 72
     1
 11
-47.5
 21
118.5
 31
0.0
100
AcDbText
 73
     2
  0
TEXT
  5
471
330
1F
100
AcDbEntity
  8
LAYER-001
  6
Continuous
 62
     7
100
AcDbText
 10
-108.0
 20
131.0
 30
0.0
 40
5.0
  1
Ｎスター高圧リアクトル始動主回路
  7
STRING_H
 72
     1
 11
-50.0
 21
133.5
 31
0.0
100
AcDbText
 73
     2
  0
TEXT
  5
472
330
1F
100
AcDbEntity
  8
LAYER-001
  6
Continuous
 62
     7
100
AcDbText
 10
-221.775
 20
-6.500000000000009
 30
0.0
 40
5.0
  1
ＶＴスター低圧可変トルクリアクトル始動主回路
 41
0.9
  7
STRING_H
 72
     1
 11
-150.0
 21
-4.0
 31
0.0
100
AcDbText
 73
     2
  0
TEXT
  5
473
330
1F
100
AcDbEntity
  8
LAYER-001
  6
Continuous
 62
     7
100
AcDbText
 10
-121.775
 20
-6.500000000000009
 30
0.0
 40
5.0
  1
ＶＴスター高圧可変トルクリアクトル始動主回路
 41
0.9
  7
STRING_H
 72
     1
 11
-50.0
 21
-4.0
 31
0.0
100
AcDbText
 73
     2
  0
TEXT
  5
474
330
1F
100
AcDbEntity
  8
LAYER-001
  6
Continuous
 62
     7
100
AcDbText
 10
-18.875
 20
-6.500000000000008
 30
0.0
 40
5.0
  1
Ｖスター低圧特殊コンドルファ始動主回路
  7
STRING_H
 72
     1
 11
50.0
 21
-4.0
 31
0.0
100
AcDbText
 73
     2
  0
TEXT
  5
475
330
1F
100
AcDbEntity
  8
LAYER-001
  6
Continuous
 62
     7
100
AcDbText
 10
81.125
 20
-6.500000000000008
 30
0.0
 40
5.0
  1
Ｖスター高圧特殊コンドルファ始動主回路
  7
STRING_H
 72
     1
 11
150.0
 21
-4.0
 31
0.0
100
AcDbText
 73
     2
  0
TEXT
  5
476
330
1F
100
AcDbEntity
  8
LAYER-001
  6
Continuous
 62
     7
100
AcDbText
 10
-141.525
 20
-14.25
 30
0.0
 40
3.0
  1
電　源
  7
STRING_H
 72
     1
 11
-135.0
 21
-12.75
 31
0.0
100
AcDbText
 73
     2
  0
TEXT
  5
477
330
1F
100
AcDbEntity
  8
LAYER-001
  6
Continuous
 62
     7
100
AcDbText
 10
-171.375
 20
-74.0
 30
0.0
 40
3.0
  1
ＶＴスター
  7
STRING_H
 72
     1
 11
-160.5
 21
-72.5
 31
0.0
100
AcDbText
 73
     2
  0
TEXT
  5
478
330
1F
100
AcDbEntity
  8
LAYER-001
  6
Continuous
 62
     7
100
AcDbText
 10
-158.375
 20
-134.25
 30
0.0
 40
3.0
  1
電 動 機
  7
STRING_H
 72
     1
 11
-147.5
 21
-132.75
 31
0.0
100
AcDbText
 73
     2
  0
TEXT
  5
479
330
1F
100
AcDbEntity
  8
LAYER-001
  6
Continuous
 62
     7
100
AcDbText
 10
-130.0
 20
-117.75
 30
0.0
 40
2.5
  1
Ｕ．Ｖ．Ｗ
  7
STRING_H
 11
-130.0
 21
-116.5
 31
0.0
100
AcDbText
 73
     2
  0
TEXT
  5
47A
330
1F
100
AcDbEntity
  8
LAYER-001
  6
Continuous
 62
     7
100
AcDbText
 10
-59.025
 20
-15.5
 30
0.0
 40
3.0
  1
電　源
  7
STRING_H
 72
     1
 11
-52.5
 21
-14.0
 31
0.0
100
AcDbText
 73
     2
  0
TEXT
  5
47B
330
1F
100
AcDbEntity
  8
LAYER-001
  6
Continuous
 62
     7
100
AcDbText
 10
-90.875
 20
-75.5
 30
0.0
 40
3.0
  1
ＶＴスター
  7
STRING_H
 72
     1
 11
-80.0
 21
-74.0
 31
0.0
100
AcDbText
 73
     2
  0
TEXT
  5
47C
330
1F
100
AcDbEntity
  8
LAYER-001
  6
Continuous
 62
     7
100
AcDbText
 10
-37.5
 20
-110.25
 30
0.0
 40
2.5
  1
Ｕ．Ｖ．Ｗ
  7
STRING_H
 11
-37.5
 21
-109.0
 31
0.0
100
AcDbText
 73
     2
  0
TEXT
  5
47D
330
1F
100
AcDbEntity
  8
LAYER-001
  6
Continuous
 62
     7
100
AcDbText
 10
-75.875
 20
-135.5
 30
0.0
 40
3.0
  1
電 動 機
  7
STRING_H
 72
     1
 11
-65.0
 21
-134.0
 31
0.0
100
AcDbText
 73
     2
  0
TEXT
  5
47E
330
1F
100
AcDbEntity
  8
LAYER-001
  6
Continuous
 62
     7
100
AcDbText
 10
53.475
 20
-14.5
 30
0.0
 40
3.0
  1
電 源
  7
STRING_H
 72
     1
 11
60.0
 21
-13.0
 31
0.0
100
AcDbText
 73
     2
  0
TEXT
  5
47F
330
1F
100
AcDbEntity
  8
LAYER-001
  6
Continuous
 62
     7
100
AcDbText
 10
15.8
 20
-58.0
 30
0.0
 40
3.0
  1
Ｖスター
  7
STRING_H
 72
     1
 11
24.5
 21
-56.5
 31
0.0
100
AcDbText
 73
     2
  0
TEXT
  5
480
330
1F
100
AcDbEntity
  8
LAYER-001
  6
Continuous
 62
     7
100
AcDbText
 10
49.125
 20
-129.25
 30
0.0
 40
3.0
  1
電 動 機
  7
STRING_H
 72
     1
 11
60.0
 21
-127.75
 31
0.0
100
AcDbText
 73
     2
  0
TEXT
  5
481
330
1F
100
AcDbEntity
  8
LAYER-001
  6
Continuous
 62
     7
100
AcDbText
 10
153.475
 20
-14.5
 30
0.0
 40
3.0
  1
電 源
  7
STRING_H
 72
     1
 11
160.0
 21
-13.0
 31
0.0
100
AcDbText
 73
     2
  0
TEXT
  5
482
330
1F
100
AcDbEntity
  8
LAYER-001
  6
Continuous
 62
     7
100
AcDbText
 10
115.8
 20
-58.0
 30
0.0
 40
3.0
  1
Ｖスター
  7
STRING_H
 72
     1
 11
124.5
 21
-56.5
 31
0.0
100
AcDbText
 73
     2
  0
TEXT
  5
483
330
1F
100
AcDbEntity
  8
LAYER-001
  6
Continuous
 62
     7
100
AcDbText
 10
149.125
 20
-129.25
 30
0.0
 40
3.0
  1
電 動 機
  7
STRING_H
 72
     1
 11
160.0
 21
-127.75
 31
0.0
100
AcDbText
 73
     2
  0
TEXT
  5
484
330
1F
100
AcDbEntity
  8
LAYER-001
  6
Continuous
 62
     7
100
AcDbText
 10
-130.0
 20
-46.75
 30
0.0
 40
2.5
  1
Ｒ．Ｓ．Ｔ
  7
STRING_H
 11
-130.0
 21
-45.5
 31
0.0
100
AcDbText
 73
     2
  0
TEXT
  5
485
330
1F
100
AcDbEntity
  8
LAYER-001
  6
Continuous
 62
     7
100
AcDbText
 10
-37.5
 20
-50.25
 30
0.0
 40
2.5
  1
Ｒ．Ｓ．Ｔ
  7
STRING_H
 11
-37.5
 21
-49.0
 31
0.0
100
AcDbText
 73
     2
  0
LINE
  5
487
102
{ACAD_REACTORS
330
486
102
}
330
1F
100
AcDbEntity
  8
LAYER-018
  6
HIDDEN
 62
     6
100
AcDbLine
 10
130.0
 20
51.0
 30
0.0
 11
130.0
 21
18.5
 31
0.0
  0
LINE
  5
489
102
{ACAD_REACTORS
330
488
102
}
330
1F
100
AcDbEntity
  8
LAYER-018
  6
HIDDEN
 62
     6
100
AcDbLine
 10
139.0
 20
51.0
 30
0.0
 11
130.0
 21
51.0
 31
0.0
  0
LINE
  5
48B
102
{ACAD_REACTORS
330
48A
102
}
330
1F
100
AcDbEntity
  8
LAYER-018
  6
Continuous
 62
     6
100
AcDbLine
 10
150.0
 20
111.0
 30
0.0
 11
150.0
 21
107.5
 31
0.0
  0
LINE
  5
48D
102
{ACAD_REACTORS
330
48C
102
}
330
1F
100
AcDbEntity
  8
LAYER-018
  6
Continuous
 62
     6
100
AcDbLine
 10
150.0
 20
43.5
 30
0.0
 11
150.0
 21
32.0
 31
0.0
  0
LINE
  5
48F
102
{ACAD_REACTORS
330
48E
102
}
330
1F
100
AcDbEntity
  8
LAYER-018
  6
Continuous
 62
     6
100
AcDbLine
 10
150.0
 20
56.0
 30
0.0
 11
141.0
 21
56.0
 31
0.0
  0
LINE
  5
491
102
{ACAD_REACTORS
330
490
102
}
330
1F
100
AcDbEntity
  8
LAYER-018
  6
Continuous
 62
     6
100
AcDbLine
 10
150.0
 20
51.0
 30
0.0
 11
141.0
 21
51.0
 31
0.0
  0
LINE
  5
493
102
{ACAD_REACTORS
330
492
102
}
330
1F
100
AcDbEntity
  8
LAYER-018
  6
Continuous
 62
     6
100
AcDbLine
 10
150.0
 20
30.0
 30
0.0
 11
150.0
 21
27.5
 31
0.0
  0
LINE
  5
495
102
{ACAD_REACTORS
330
494
102
}
330
1F
100
AcDbEntity
  8
LAYER-018
  6
Continuous
 62
     6
100
AcDbLine
 10
150.0
 20
13.5
 30
0.0
 11
160.0
 21
13.5
 31
0.0
  0
LINE
  5
497
102
{ACAD_REACTORS
330
496
102
}
330
1F
100
AcDbEntity
  8
LAYER-018
  6
Continuous
 62
     6
100
AcDbLine
 10
155.0
 20
13.5
 30
0.0
 11
155.0
 21
18.5
 31
0.0
  0
LINE
  5
499
102
{ACAD_REACTORS
330
498
102
}
330
1F
100
AcDbEntity
  8
LAYER-018
  6
Continuous
 62
     6
100
AcDbLine
 10
160.0
 20
13.5
 30
0.0
 11
160.0
 21
18.5
 31
0.0
  0
LINE
  5
49B
102
{ACAD_REACTORS
330
49A
102
}
330
1F
100
AcDbEntity
  8
LAYER-018
  6
Continuous
 62
     6
100
AcDbLine
 10
162.5
 20
61.0
 30
0.0
 11
162.5
 21
57.5
 31
0.0
  0
LINE
  5
49D
102
{ACAD_REACTORS
330
49C
102
}
330
1F
100
AcDbEntity
  8
LAYER-018
  6
Continuous
 62
     6
100
AcDbLine
 10
162.5
 20
48.5
 30
0.0
 11
162.5
 21
46.0
 31
0.0
  0
LINE
  5
49F
102
{ACAD_REACTORS
330
49E
102
}
330
1F
100
AcDbEntity
  8
LAYER-018
  6
Continuous
 62
     6
100
AcDbLine
 10
150.0
 20
87.5
 30
0.0
 11
150.0
 21
63.5
 31
0.0
  0
LINE
  5
4A1
102
{ACAD_REACTORS
330
4A0
102
}
330
1F
100
AcDbEntity
  8
LAYER-018
  6
Continuous
 62
     6
100
AcDbLine
 10
150.0
 20
98.5
 30
0.0
 11
150.0
 21
89.5
 31
0.0
  0
LINE
  5
4A3
102
{ACAD_REACTORS
330
4A2
102
}
330
1F
100
AcDbEntity
  8
LAYER-018
  6
Continuous
 62
     6
100
AcDbLine
 10
150.0
 20
18.5
 30
0.0
 11
150.0
 21
13.5
 31
0.0
  0
LINE
  5
4A5
102
{ACAD_REACTORS
330
4A4
102
}
330
1F
100
AcDbEntity
  8
LAYER-018
  6
HIDDEN
 62
     6
100
AcDbLine
 10
32.5
 20
51.0
 30
0.0
 11
32.5
 21
18.5
 31
0.0
  0
LINE
  5
4A7
102
{ACAD_REACTORS
330
4A6
102
}
330
1F
100
AcDbEntity
  8
LAYER-018
  6
HIDDEN
 62
     6
100
AcDbLine
 10
41.5
 20
51.0
 30
0.0
 11
32.5
 21
51.0
 31
0.0
  0
LINE
  5
4A9
102
{ACAD_REACTORS
330
4A8
102
}
330
1F
100
AcDbEntity
  8
LAYER-018
  6
Continuous
 62
     6
100
AcDbLine
 10
52.5
 20
111.0
 30
0.0
 11
52.5
 21
107.5
 31
0.0
  0
LINE
  5
4AB
102
{ACAD_REACTORS
330
4AA
102
}
330
1F
100
AcDbEntity
  8
LAYER-018
  6
Continuous
 62
     6
100
AcDbLine
 10
52.5
 20
43.5
 30
0.0
 11
52.5
 21
32.5
 31
0.0
  0
LINE
  5
4AD
102
{ACAD_REACTORS
330
4AC
102
}
330
1F
100
AcDbEntity
  8
LAYER-018
  6
Continuous
 62
     6
100
AcDbLine
 10
52.5
 20
23.5
 30
0.0
 11
52.5
 21
13.5
 31
0.0
  0
LINE
  5
4AF
102
{ACAD_REACTORS
330
4AE
102
}
330
1F
100
AcDbEntity
  8
LAYER-018
  6
Continuous
 62
     6
100
AcDbLine
 10
52.5
 20
68.5
 30
0.0
 11
62.5
 21
68.5
 31
0.0
  0
LINE
  5
4B1
102
{ACAD_REACTORS
330
4B0
102
}
330
1F
100
AcDbEntity
  8
LAYER-018
  6
Continuous
 62
     6
100
AcDbLine
 10
52.5
 20
56.0
 30
0.0
 11
43.5
 21
56.0
 31
0.0
  0
LINE
  5
4B3
102
{ACAD_REACTORS
330
4B2
102
}
330
1F
100
AcDbEntity
  8
LAYER-018
  6
Continuous
 62
     6
100
AcDbLine
 10
52.5
 20
51.0
 30
0.0
 11
43.5
 21
51.0
 31
0.0
  0
LINE
  5
4B5
102
{ACAD_REACTORS
330
4B4
102
}
330
1F
100
AcDbEntity
  8
LAYER-018
  6
Continuous
 62
     6
100
AcDbLine
 10
52.5
 20
13.5
 30
0.0
 11
62.5
 21
13.5
 31
0.0
  0
LINE
  5
4B7
102
{ACAD_REACTORS
330
4B6
102
}
330
1F
100
AcDbEntity
  8
LAYER-018
  6
Continuous
 62
     6
100
AcDbLine
 10
57.5
 20
13.5
 30
0.0
 11
57.5
 21
18.5
 31
0.0
  0
LINE
  5
4B9
102
{ACAD_REACTORS
330
4B8
102
}
330
1F
100
AcDbEntity
  8
LAYER-018
  6
Continuous
 62
     6
100
AcDbLine
 10
62.5
 20
68.5
 30
0.0
 11
62.5
 21
57.5
 31
0.0
  0
LINE
  5
4BB
102
{ACAD_REACTORS
330
4BA
102
}
330
1F
100
AcDbEntity
  8
LAYER-018
  6
Continuous
 62
     6
100
AcDbLine
 10
62.5
 20
48.5
 30
0.0
 11
62.5
 21
38.5
 31
0.0
  0
LINE
  5
4BD
102
{ACAD_REACTORS
330
4BC
102
}
330
1F
100
AcDbEntity
  8
LAYER-018
  6
Continuous
 62
     6
100
AcDbLine
 10
62.5
 20
38.5
 30
0.0
 11
52.5
 21
38.5
 31
0.0
  0
LINE
  5
4BF
102
{ACAD_REACTORS
330
4BE
102
}
330
1F
100
AcDbEntity
  8
LAYER-018
  6
Continuous
 62
     6
100
AcDbLine
 10
62.5
 20
13.5
 30
0.0
 11
62.5
 21
18.5
 31
0.0
  0
LINE
  5
4C1
102
{ACAD_REACTORS
330
4C0
102
}
330
1F
100
AcDbEntity
  8
LAYER-018
  6
Continuous
 62
     6
100
AcDbLine
 10
52.5
 20
92.5
 30
0.0
 11
52.5
 21
63.5
 31
0.0
  0
LINE
  5
4C3
102
{ACAD_REACTORS
330
4C2
102
}
330
1F
100
AcDbEntity
  8
LAYER-018
  6
Continuous
 62
     6
100
AcDbLine
 10
52.5
 20
98.5
 30
0.0
 11
52.5
 21
94.5
 31
0.0
  0
LINE
  5
4C5
102
{ACAD_REACTORS
330
4C4
102
}
330
1F
100
AcDbEntity
  8
LAYER-018
  6
Continuous
 62
     6
100
AcDbLine
 10
-150.0
 20
112.25
 30
0.0
 11
-150.0
 21
107.5
 31
0.0
  0
LINE
  5
4C7
102
{ACAD_REACTORS
330
4C6
102
}
330
1F
100
AcDbEntity
  8
LAYER-018
  6
Continuous
 62
     6
100
AcDbLine
 10
-150.0
 20
46.0
 30
0.0
 11
-150.0
 21
14.5
 31
0.0
  0
LINE
  5
4C9
102
{ACAD_REACTORS
330
4C8
102
}
330
1F
100
AcDbEntity
  8
LAYER-018
  6
Continuous
 62
     6
100
AcDbLine
 10
-150.0
 20
76.0
 30
0.0
 11
-140.0
 21
76.0
 31
0.0
  0
LINE
  5
4CB
102
{ACAD_REACTORS
330
4CA
102
}
330
1F
100
AcDbEntity
  8
LAYER-018
  6
Continuous
 62
     6
100
AcDbLine
 10
-140.0
 20
76.0
 30
0.0
 11
-140.0
 21
71.0
 31
0.0
  0
LINE
  5
4CD
102
{ACAD_REACTORS
330
4CC
102
}
330
1F
100
AcDbEntity
  8
LAYER-018
  6
Continuous
 62
     6
100
AcDbLine
 10
-140.0
 20
46.0
 30
0.0
 11
-140.0
 21
41.0
 31
0.0
  0
LINE
  5
4CF
102
{ACAD_REACTORS
330
4CE
102
}
330
1F
100
AcDbEntity
  8
LAYER-018
  6
Continuous
 62
     6
100
AcDbLine
 10
-140.0
 20
41.0
 30
0.0
 11
-150.0
 21
41.0
 31
0.0
  0
LINE
  5
4D1
102
{ACAD_REACTORS
330
4D0
102
}
330
1F
100
AcDbEntity
  8
LAYER-018
  6
Continuous
 62
     6
100
AcDbLine
 10
-150.0
 20
92.5
 30
0.0
 11
-150.0
 21
71.0
 31
0.0
  0
LINE
  5
4D3
102
{ACAD_REACTORS
330
4D2
102
}
330
1F
100
AcDbEntity
  8
LAYER-018
  6
Continuous
 62
     6
100
AcDbLine
 10
-150.0
 20
98.5
 30
0.0
 11
-150.0
 21
94.5
 31
0.0
  0
LINE
  5
4D5
102
{ACAD_REACTORS
330
4D4
102
}
330
1F
100
AcDbEntity
  8
LAYER-018
  6
HIDDEN
 62
     6
100
AcDbLine
 10
-57.5
 20
53.5
 30
0.0
 11
-57.5
 21
28.5
 31
0.0
  0
LINE
  5
4D7
102
{ACAD_REACTORS
330
4D6
102
}
330
1F
100
AcDbEntity
  8
LAYER-018
  6
HIDDEN
 62
     6
100
AcDbLine
 10
-53.5
 20
53.5
 30
0.0
 11
-57.5
 21
53.5
 31
0.0
  0
LINE
  5
4D9
102
{ACAD_REACTORS
330
4D8
102
}
330
1F
100
AcDbEntity
  8
LAYER-018
  6
Continuous
 62
     6
100
AcDbLine
 10
-47.5
 20
111.0
 30
0.0
 11
-47.5
 21
107.5
 31
0.0
  0
LINE
  5
4DB
102
{ACAD_REACTORS
330
4DA
102
}
330
1F
100
AcDbEntity
  8
LAYER-018
  6
Continuous
 62
     6
100
AcDbLine
 10
-35.0
 20
66.0
 30
0.0
 11
-35.0
 21
62.5
 31
0.0
  0
LINE
  5
4DD
102
{ACAD_REACTORS
330
4DC
102
}
330
1F
100
AcDbEntity
  8
LAYER-018
  6
Continuous
 62
     6
100
AcDbLine
 10
-35.0
 20
53.5
 30
0.0
 11
-35.0
 21
51.0
 31
0.0
  0
LINE
  5
4DF
102
{ACAD_REACTORS
330
4DE
102
}
330
1F
100
AcDbEntity
  8
LAYER-018
  6
Continuous
 62
     6
100
AcDbLine
 10
-47.5
 20
92.5
 30
0.0
 11
-47.5
 21
71.0
 31
0.0
  0
LINE
  5
4E1
102
{ACAD_REACTORS
330
4E0
102
}
330
1F
100
AcDbEntity
  8
LAYER-018
  6
Continuous
 62
     6
100
AcDbLine
 10
-47.5
 20
94.75
 30
0.0
 11
-47.5
 21
94.5
 31
0.0
  0
LINE
  5
4E3
102
{ACAD_REACTORS
330
4E2
102
}
330
1F
100
AcDbEntity
  8
LAYER-018
  6
Continuous
 62
     6
100
AcDbLine
 10
-135.0
 20
-25.5
 30
0.0
 11
-135.0
 21
-30.0
 31
0.0
  0
LINE
  5
4E5
102
{ACAD_REACTORS
330
4E4
102
}
330
1F
100
AcDbEntity
  8
LAYER-018
  6
Continuous
 62
     6
100
AcDbLine
 10
-135.0
 20
-67.75
 30
0.0
 11
-135.0
 21
-82.75
 31
0.0
  0
LINE
  5
4E7
102
{ACAD_REACTORS
330
4E6
102
}
330
1F
100
AcDbEntity
  8
LAYER-018
  6
Continuous
 62
     6
100
AcDbLine
 10
-135.0
 20
-102.75
 30
0.0
 11
-135.0
 21
-115.5
 31
0.0
  0
LINE
  5
4E9
102
{ACAD_REACTORS
330
4E8
102
}
330
1F
100
AcDbEntity
  8
LAYER-018
  6
Continuous
 62
     6
100
AcDbLine
 10
-135.0
 20
-80.25
 30
0.0
 11
-120.0
 21
-80.25
 31
0.0
  0
LINE
  5
4EB
102
{ACAD_REACTORS
330
4EA
102
}
330
1F
100
AcDbEntity
  8
LAYER-018
  6
Continuous
 62
     6
100
AcDbLine
 10
-120.0
 20
-80.25
 30
0.0
 11
-120.0
 21
-82.75
 31
0.0
  0
LINE
  5
4ED
102
{ACAD_REACTORS
330
4EC
102
}
330
1F
100
AcDbEntity
  8
LAYER-018
  6
Continuous
 62
     6
100
AcDbLine
 10
-120.0
 20
-92.75
 30
0.0
 11
-120.0
 21
-98.75
 31
0.0
  0
LINE
  5
4EF
102
{ACAD_REACTORS
330
4EE
102
}
330
1F
100
AcDbEntity
  8
LAYER-018
  6
Continuous
 62
     6
100
AcDbLine
 10
-120.0
 20
-107.75
 30
0.0
 11
-120.0
 21
-110.25
 31
0.0
  0
LINE
  5
4F1
102
{ACAD_REACTORS
330
4F0
102
}
330
1F
100
AcDbEntity
  8
LAYER-018
  6
Continuous
 62
     6
100
AcDbLine
 10
-120.0
 20
-110.25
 30
0.0
 11
-135.0
 21
-110.25
 31
0.0
  0
LINE
  5
4F3
102
{ACAD_REACTORS
330
4F2
102
}
330
1F
100
AcDbEntity
  8
LAYER-018
  6
Continuous
 62
     6
100
AcDbLine
 10
-51.5
 20
-49.0
 30
0.0
 11
-42.5
 21
-49.0
 31
0.0
  0
LINE
  5
4F5
102
{ACAD_REACTORS
330
4F4
102
}
330
1F
100
AcDbEntity
  8
LAYER-018
  6
Continuous
 62
     6
100
AcDbLine
 10
-42.5
 20
-69.0
 30
0.0
 11
-42.5
 21
-84.0
 31
0.0
  0
LINE
  5
4F7
102
{ACAD_REACTORS
330
4F6
102
}
330
1F
100
AcDbEntity
  8
LAYER-018
  6
Continuous
 62
     6
100
AcDbLine
 10
-42.5
 20
-104.0
 30
0.0
 11
-42.5
 21
-108.0
 31
0.0
  0
LINE
  5
4F9
102
{ACAD_REACTORS
330
4F8
102
}
330
1F
100
AcDbEntity
  8
LAYER-018
  6
Continuous
 62
     6
100
AcDbLine
 10
-52.5
 20
-30.0
 30
0.0
 11
-52.5
 21
-26.5
 31
0.0
  0
LINE
  5
4FB
102
{ACAD_REACTORS
330
4FA
102
}
330
1F
100
AcDbEntity
  8
LAYER-018
  6
Continuous
 62
     6
100
AcDbLine
 10
60.0
 20
-22.75
 30
0.0
 11
60.0
 21
-30.0
 31
0.0
  0
LINE
  5
4FD
102
{ACAD_REACTORS
330
4FC
102
}
330
1F
100
AcDbEntity
  8
LAYER-018
  6
Continuous
 62
     6
100
AcDbLine
 10
60.0
 20
-59.0
 30
0.0
 11
60.0
 21
-68.0
 31
0.0
  0
LINE
  5
4FF
102
{ACAD_REACTORS
330
4FE
102
}
330
1F
100
AcDbEntity
  8
LAYER-018
  6
Continuous
 62
     6
100
AcDbLine
 10
60.0
 20
-70.0
 30
0.0
 11
60.0
 21
-115.25
 31
0.0
  0
LINE
  5
501
102
{ACAD_REACTORS
330
500
102
}
330
1F
100
AcDbEntity
  8
LAYER-018
  6
Continuous
 62
     6
100
AcDbLine
 10
60.0
 20
-46.5
 30
0.0
 11
40.0
 21
-46.5
 31
0.0
  0
LINE
  5
503
102
{ACAD_REACTORS
330
502
102
}
330
1F
100
AcDbEntity
  8
LAYER-018
  6
Continuous
 62
     6
100
AcDbLine
 10
30.0
 20
-64.0
 30
0.0
 11
30.0
 21
-66.5
 31
0.0
  0
LINE
  5
505
102
{ACAD_REACTORS
330
504
102
}
330
1F
100
AcDbEntity
  8
LAYER-018
  6
Continuous
 62
     6
100
AcDbLine
 10
30.0
 20
-76.5
 30
0.0
 11
30.0
 21
-80.0
 31
0.0
  0
LINE
  5
507
102
{ACAD_REACTORS
330
506
102
}
330
1F
100
AcDbEntity
  8
LAYER-018
  6
Continuous
 62
     6
100
AcDbLine
 10
40.0
 20
-64.0
 30
0.0
 11
30.0
 21
-64.0
 31
0.0
  0
LINE
  5
509
102
{ACAD_REACTORS
330
508
102
}
330
1F
100
AcDbEntity
  8
LAYER-018
  6
Continuous
 62
     6
100
AcDbLine
 10
40.0
 20
-89.0
 30
0.0
 11
30.0
 21
-89.0
 31
0.0
  0
LINE
  5
50B
102
{ACAD_REACTORS
330
50A
102
}
330
1F
100
AcDbEntity
  8
LAYER-018
  6
Continuous
 62
     6
100
AcDbLine
 10
40.0
 20
-93.0
 30
0.0
 11
44.0
 21
-93.0
 31
0.0
  0
LINE
  5
50D
102
{ACAD_REACTORS
330
50C
102
}
330
1F
100
AcDbEntity
  8
LAYER-018
  6
Continuous
 62
     6
100
AcDbLine
 10
30.0
 20
-114.0
 30
0.0
 11
30.0
 21
-119.0
 31
0.0
  0
LINE
  5
50F
102
{ACAD_REACTORS
330
50E
102
}
330
1F
100
AcDbEntity
  8
LAYER-018
  6
Continuous
 62
     6
100
AcDbLine
 10
35.0
 20
-114.0
 30
0.0
 11
35.0
 21
-119.0
 31
0.0
  0
LINE
  5
511
102
{ACAD_REACTORS
330
510
102
}
330
1F
100
AcDbEntity
  8
LAYER-018
  6
Continuous
 62
     6
100
AcDbLine
 10
40.0
 20
-119.0
 30
0.0
 11
30.0
 21
-119.0
 31
0.0
  0
LINE
  5
513
102
{ACAD_REACTORS
330
512
102
}
330
1F
100
AcDbEntity
  8
LAYER-018
  6
Continuous
 62
     6
100
AcDbLine
 10
60.0
 20
-38.0
 30
0.0
 11
60.0
 21
-50.0
 31
0.0
  0
LINE
  5
515
102
{ACAD_REACTORS
330
514
102
}
330
1F
100
AcDbEntity
  8
LAYER-018
  6
Continuous
 62
     6
100
AcDbLine
 10
40.0
 20
-119.0
 30
0.0
 11
40.0
 21
-116.5
 31
0.0
  0
LINE
  5
517
102
{ACAD_REACTORS
330
516
102
}
330
1F
100
AcDbEntity
  8
LAYER-018
  6
Continuous
 62
     6
100
AcDbLine
 10
40.0
 20
-50.0
 30
0.0
 11
40.0
 21
-46.5
 31
0.0
  0
LINE
  5
519
102
{ACAD_REACTORS
330
518
102
}
330
1F
100
AcDbEntity
  8
LAYER-018
  6
Continuous
 62
     6
100
AcDbLine
 10
40.0
 20
-60.5
 30
0.0
 11
40.0
 21
-59.0
 31
0.0
  0
LINE
  5
51B
102
{ACAD_REACTORS
330
51A
102
}
330
1F
100
AcDbEntity
  8
LAYER-018
  6
Continuous
 62
     6
100
AcDbLine
 10
40.0
 20
-66.5
 30
0.0
 11
40.0
 21
-62.5
 31
0.0
  0
LINE
  5
51D
102
{ACAD_REACTORS
330
51C
102
}
330
1F
100
AcDbEntity
  8
LAYER-018
  6
Continuous
 62
     6
100
AcDbLine
 10
40.0
 20
-88.0
 30
0.0
 11
40.0
 21
-81.5
 31
0.0
  0
LINE
  5
51F
102
{ACAD_REACTORS
330
51E
102
}
330
1F
100
AcDbEntity
  8
LAYER-018
  6
Continuous
 62
     6
100
AcDbLine
 10
40.0
 20
-107.5
 30
0.0
 11
40.0
 21
-105.0
 31
0.0
  0
LINE
  5
521
102
{ACAD_REACTORS
330
520
102
}
330
1F
100
AcDbEntity
  8
LAYER-018
  6
Continuous
 62
     6
100
AcDbLine
 10
46.0
 20
-93.0
 30
0.0
 11
60.0
 21
-93.0
 31
0.0
  0
LINE
  5
523
102
{ACAD_REACTORS
330
522
102
}
330
1F
100
AcDbEntity
  8
LAYER-018
  6
Continuous
 62
     6
100
AcDbLine
 10
40.0
 20
-98.0
 30
0.0
 11
44.0
 21
-98.0
 31
0.0
  0
LINE
  5
525
102
{ACAD_REACTORS
330
524
102
}
330
1F
100
AcDbEntity
  8
LAYER-018
  6
Continuous
 62
     6
100
AcDbLine
 10
160.0
 20
-22.75
 30
0.0
 11
160.0
 21
-30.0
 31
0.0
  0
LINE
  5
527
102
{ACAD_REACTORS
330
526
102
}
330
1F
100
AcDbEntity
  8
LAYER-018
  6
Continuous
 62
     6
100
AcDbLine
 10
160.0
 20
-59.0
 30
0.0
 11
160.0
 21
-115.25
 31
0.0
  0
LINE
  5
529
102
{ACAD_REACTORS
330
528
102
}
330
1F
100
AcDbEntity
  8
LAYER-018
  6
Continuous
 62
     6
100
AcDbLine
 10
160.0
 20
-46.5
 30
0.0
 11
140.0
 21
-46.5
 31
0.0
  0
LINE
  5
52B
102
{ACAD_REACTORS
330
52A
102
}
330
1F
100
AcDbEntity
  8
LAYER-018
  6
Continuous
 62
     6
100
AcDbLine
 10
140.0
 20
-50.0
 30
0.0
 11
140.0
 21
-46.5
 31
0.0
  0
LINE
  5
52D
102
{ACAD_REACTORS
330
52C
102
}
330
1F
100
AcDbEntity
  8
LAYER-018
  6
Continuous
 62
     6
100
AcDbLine
 10
140.0
 20
-119.0
 30
0.0
 11
140.0
 21
-116.5
 31
0.0
  0
LINE
  5
52F
102
{ACAD_REACTORS
330
52E
102
}
330
1F
100
AcDbEntity
  8
LAYER-018
  6
Continuous
 62
     6
100
AcDbLine
 10
140.0
 20
-107.5
 30
0.0
 11
140.0
 21
-105.0
 31
0.0
  0
LINE
  5
531
102
{ACAD_REACTORS
330
530
102
}
330
1F
100
AcDbEntity
  8
LAYER-018
  6
Continuous
 62
     6
100
AcDbLine
 10
140.0
 20
-88.0
 30
0.0
 11
140.0
 21
-81.5
 31
0.0
  0
LINE
  5
533
102
{ACAD_REACTORS
330
532
102
}
330
1F
100
AcDbEntity
  8
LAYER-018
  6
Continuous
 62
     6
100
AcDbLine
 10
140.0
 20
-66.5
 30
0.0
 11
140.0
 21
-62.5
 31
0.0
  0
LINE
  5
535
102
{ACAD_REACTORS
330
534
102
}
330
1F
100
AcDbEntity
  8
LAYER-018
  6
Continuous
 62
     6
100
AcDbLine
 10
140.0
 20
-60.5
 30
0.0
 11
140.0
 21
-59.0
 31
0.0
  0
LINE
  5
537
102
{ACAD_REACTORS
330
536
102
}
330
1F
100
AcDbEntity
  8
LAYER-018
  6
Continuous
 62
     6
100
AcDbLine
 10
130.0
 20
-64.0
 30
0.0
 11
130.0
 21
-71.25
 31
0.0
  0
LINE
  5
539
102
{ACAD_REACTORS
330
538
102
}
330
1F
100
AcDbEntity
  8
LAYER-018
  6
Continuous
 62
     6
100
AcDbLine
 10
136.25
 20
-64.0
 30
0.0
 11
130.0
 21
-64.0
 31
0.0
  0
LINE
  5
53B
102
{ACAD_REACTORS
330
53A
102
}
330
1F
100
AcDbEntity
  8
LAYER-018
  6
Continuous
 62
     6
100
AcDbLine
 10
136.25
 20
-84.0
 30
0.0
 11
130.0
 21
-84.0
 31
0.0
  0
LINE
  5
53D
102
{ACAD_REACTORS
330
53C
102
}
330
1F
100
AcDbEntity
  8
LAYER-018
  6
Continuous
 62
     6
100
AcDbLine
 10
140.0
 20
-93.0
 30
0.0
 11
144.0
 21
-93.0
 31
0.0
  0
LINE
  5
53F
102
{ACAD_REACTORS
330
53E
102
}
330
1F
100
AcDbEntity
  8
LAYER-018
  6
Continuous
 62
     6
100
AcDbLine
 10
146.0
 20
-93.0
 30
0.0
 11
160.0
 21
-93.0
 31
0.0
  0
LINE
  5
541
102
{ACAD_REACTORS
330
540
102
}
330
1F
100
AcDbEntity
  8
LAYER-018
  6
Continuous
 62
     6
100
AcDbLine
 10
140.0
 20
-98.0
 30
0.0
 11
144.0
 21
-98.0
 31
0.0
  0
LINE
  5
543
102
{ACAD_REACTORS
330
542
102
}
330
1F
100
AcDbEntity
  8
LAYER-018
  6
Continuous
 62
     6
100
AcDbLine
 10
130.0
 20
-114.0
 30
0.0
 11
130.0
 21
-119.0
 31
0.0
  0
LINE
  5
545
102
{ACAD_REACTORS
330
544
102
}
330
1F
100
AcDbEntity
  8
LAYER-018
  6
Continuous
 62
     6
100
AcDbLine
 10
135.0
 20
-114.0
 30
0.0
 11
135.0
 21
-119.0
 31
0.0
  0
LINE
  5
547
102
{ACAD_REACTORS
330
546
102
}
330
1F
100
AcDbEntity
  8
LAYER-018
  6
Continuous
 62
     6
100
AcDbLine
 10
140.0
 20
-119.0
 30
0.0
 11
130.0
 21
-119.0
 31
0.0
  0
LINE
  5
549
102
{ACAD_REACTORS
330
548
102
}
330
1F
100
AcDbEntity
  8
LAYER-018
  6
Continuous
 62
     6
100
AcDbLine
 10
136.25
 20
-64.0
 30
0.0
 11
136.25
 21
-69.0
 31
0.0
  0
LINE
  5
54B
102
{ACAD_REACTORS
330
54A
102
}
330
1F
100
AcDbEntity
  8
LAYER-018
  6
Continuous
 62
     6
100
AcDbLine
 10
136.25
 20
-79.0
 30
0.0
 11
136.25
 21
-84.0
 31
0.0
  0
LINE
  5
54D
102
{ACAD_REACTORS
330
54C
102
}
330
1F
100
AcDbEntity
  8
LAYER-018
  6
Continuous
 62
     6
100
AcDbLine
 10
130.0
 20
-80.25
 30
0.0
 11
130.0
 21
-84.0
 31
0.0
  0
LINE
  5
54F
102
{ACAD_REACTORS
330
54E
102
}
330
1F
100
AcDbEntity
  8
LAYER-018
  6
Continuous
 62
     6
100
AcDbLine
 10
160.0
 20
-42.75
 30
0.0
 11
160.0
 21
-50.0
 31
0.0
  0
LINE
  5
551
102
{ACAD_REACTORS
330
550
102
}
330
1F
100
AcDbEntity
  8
LAYER-018
  6
Continuous
 62
     6
100
AcDbLine
 10
-135.0
 20
-46.5
 30
0.0
 11
-135.0
 21
-47.75
 31
0.0
  0
LINE
  5
553
102
{ACAD_REACTORS
330
552
102
}
330
1F
100
AcDbEntity
  8
LAYER-018
  6
Continuous
 62
     6
100
AcDbLine
 10
-135.0
 20
-39.0
 30
0.0
 11
-135.0
 21
-44.5
 31
0.0
  0
LINE
  5
555
102
{ACAD_REACTORS
330
554
102
}
330
1F
100
AcDbEntity
  8
LAYER-018
  6
Continuous
 62
     6
100
AcDbLine
 10
-135.0
 20
-41.5
 30
0.0
 11
-147.5
 21
-41.5
 31
0.0
  0
LINE
  5
557
102
{ACAD_REACTORS
330
556
102
}
330
1F
100
AcDbEntity
  8
LAYER-018
  6
Continuous
 62
     6
100
AcDbLine
 10
-147.5
 20
-41.5
 30
0.0
 11
-147.5
 21
-77.5
 31
0.0
  0
LINE
  5
559
102
{ACAD_REACTORS
330
558
102
}
330
1F
100
AcDbEntity
  8
LAYER-018
  6
Continuous
 62
     6
100
AcDbLine
 10
-136.0
 20
-116.5
 30
0.0
 11
-147.5
 21
-116.5
 31
0.0
  0
LINE
  5
55B
102
{ACAD_REACTORS
330
55A
102
}
330
1F
100
AcDbEntity
  8
LAYER-018
  6
Continuous
 62
     6
100
AcDbLine
 10
-147.5
 20
-86.5
 30
0.0
 11
-147.5
 21
-126.5
 31
0.0
  0
LINE
  5
55D
102
{ACAD_REACTORS
330
55C
102
}
330
1F
100
AcDbEntity
  8
LAYER-018
  6
Continuous
 62
     6
100
AcDbLine
 10
-52.5
 20
-44.0
 30
0.0
 11
-65.0
 21
-44.0
 31
0.0
  0
LINE
  5
55F
102
{ACAD_REACTORS
330
55E
102
}
330
1F
100
AcDbEntity
  8
LAYER-018
  6
Continuous
 62
     6
100
AcDbLine
 10
-65.0
 20
-44.0
 30
0.0
 11
-65.0
 21
-77.5
 31
0.0
  0
LINE
  5
561
102
{ACAD_REACTORS
330
560
102
}
330
1F
100
AcDbEntity
  8
LAYER-018
  6
Continuous
 62
     6
100
AcDbLine
 10
-65.0
 20
-109.0
 30
0.0
 11
-43.5
 21
-109.0
 31
0.0
  0
LINE
  5
563
102
{ACAD_REACTORS
330
562
102
}
330
1F
100
AcDbEntity
  8
LAYER-018
  6
Continuous
 62
     6
100
AcDbLine
 10
-52.5
 20
-48.0
 30
0.0
 11
-52.5
 21
-39.0
 31
0.0
  0
LINE
  5
565
102
{ACAD_REACTORS
330
564
102
}
330
1F
100
AcDbEntity
  8
LAYER-018
  6
Continuous
 62
     6
100
AcDbLine
 10
-65.0
 20
-86.5
 30
0.0
 11
-65.0
 21
-126.5
 31
0.0
  0
LINE
  5
567
102
{ACAD_REACTORS
330
566
102
}
330
1F
100
AcDbEntity
  8
LAYER-018
  6
Continuous
 62
     6
100
AcDbLine
 10
-25.0
 20
-86.5
 30
0.0
 11
-25.0
 21
-90.0
 31
0.0
  0
LINE
  5
569
102
{ACAD_REACTORS
330
568
102
}
330
1F
100
AcDbEntity
  8
LAYER-018
  6
Continuous
 62
     6
100
AcDbLine
 10
-25.0
 20
-99.0
 30
0.0
 11
-25.0
 21
-99.0
 31
0.0
  0
ENDSEC
  0
SECTION
  2
OBJECTS
  0
DICTIONARY
  5
C
330
0
100
AcDbDictionary
281
     1
  3
ACAD_GROUP
350
D
  3
ACAD_LAYOUT
350
1A
  3
ACAD_MLINESTYLE
350
17
  3
ACAD_PLOTSETTINGS
350
19
  3
ACAD_PLOTSTYLENAME
350
E
  0
DICTIONARY
  5
D
102
{ACAD_REACTORS
330
C
102
}
330
C
100
AcDbDictionary
281
     1
  3
*A1
350
25C
  3
*A10
350
2E0
  3
*A100
350
4AC
  3
*A101
350
4AE
  3
*A102
350
4B0
  3
*A103
350
4B2
  3
*A104
350
4B4
  3
*A105
350
4B6
  3
*A106
350
4B8
  3
*A107
350
4BA
  3
*A108
350
4BC
  3
*A109
350
4BE
  3
*A11
350
2E3
  3
*A110
350
4C0
  3
*A111
350
4C2
  3
*A112
350
4C4
  3
*A113
350
4C6
  3
*A114
350
4C8
  3
*A115
350
4CA
  3
*A116
350
4CC
  3
*A117
350
4CE
  3
*A118
350
4D0
  3
*A119
350
4D2
  3
*A12
350
2E6
  3
*A120
350
4D4
  3
*A121
350
4D6
  3
*A122
350
4D8
  3
*A123
350
4DA
  3
*A124
350
4DC
  3
*A125
350
4DE
  3
*A126
350
4E0
  3
*A127
350
4E2
  3
*A128
350
4E4
  3
*A129
350
4E6
  3
*A13
350
2E9
  3
*A130
350
4E8
  3
*A131
350
4EA
  3
*A132
350
4EC
  3
*A133
350
4EE
  3
*A134
350
4F0
  3
*A135
350
4F2
  3
*A136
350
4F4
  3
*A137
350
4F6
  3
*A138
350
4F8
  3
*A139
350
4FA
  3
*A14
350
2FC
  3
*A140
350
4FC
  3
*A141
350
4FE
  3
*A142
350
500
  3
*A143
350
502
  3
*A144
350
504
  3
*A145
350
506
  3
*A146
350
508
  3
*A147
350
50A
  3
*A148
350
50C
  3
*A149
350
50E
  3
*A15
350
2FF
  3
*A150
350
510
  3
*A151
350
512
  3
*A152
350
514
  3
*A153
350
516
  3
*A154
350
518
  3
*A155
350
51A
  3
*A156
350
51C
  3
*A157
350
51E
  3
*A158
350
520
  3
*A159
350
522
  3
*A16
350
305
  3
*A160
350
524
  3
*A161
350
526
  3
*A162
350
528
  3
*A163
350
52A
  3
*A164
350
52C
  3
*A165
350
52E
  3
*A166
350
530
  3
*A167
350
532
  3
*A168
350
534
  3
*A169
350
536
  3
*A17
350
30A
  3
*A170
350
538
  3
*A171
350
53A
  3
*A172
350
53C
  3
*A173
350
53E
  3
*A174
350
540
  3
*A175
350
542
  3
*A176
350
544
  3
*A177
350
546
  3
*A178
350
548
  3
*A179
350
54A
  3
*A18
350
310
  3
*A180
350
54C
  3
*A181
350
54E
  3
*A182
350
550
  3
*A183
350
552
  3
*A184
350
554
  3
*A185
350
556
  3
*A186
350
558
  3
*A187
350
55A
  3
*A188
350
55C
  3
*A189
350
55E
  3
*A19
350
313
  3
*A190
350
560
  3
*A191
350
562
  3
*A192
350
564
  3
*A193
350
566
  3
*A194
350
568
  3
*A2
350
262
  3
*A20
350
316
  3
*A21
350
319
  3
*A22
350
322
  3
*A23
350
328
  3
*A24
350
32E
  3
*A25
350
334
  3
*A26
350
337
  3
*A27
350
339
  3
*A28
350
34B
  3
*A29
350
34E
  3
*A3
350
272
  3
*A30
350
354
  3
*A31
350
35A
  3
*A32
350
35D
  3
*A33
350
363
  3
*A34
350
36D
  3
*A35
350
36F
  3
*A36
350
378
  3
*A37
350
381
  3
*A38
350
388
  3
*A39
350
38A
  3
*A4
350
278
  3
*A40
350
390
  3
*A41
350
396
  3
*A42
350
398
  3
*A43
350
3A1
  3
*A44
350
3AA
  3
*A45
350
3AC
  3
*A46
350
3B2
  3
*A47
350
3B7
  3
*A48
350
3BD
  3
*A49
350
3C3
  3
*A5
350
28B
  3
*A50
350
3C5
  3
*A51
350
3CA
  3
*A52
350
3CF
  3
*A53
350
3D6
  3
*A54
350
3DC
  3
*A55
350
3DF
  3
*A56
350
3E6
  3
*A57
350
3E9
  3
*A58
350
3EB
  3
*A59
350
3F1
  3
*A6
350
295
  3
*A60
350
3F6
  3
*A61
350
3FD
  3
*A62
350
402
  3
*A63
350
408
  3
*A64
350
40E
  3
*A65
350
410
  3
*A66
350
415
  3
*A67
350
41C
  3
*A68
350
422
  3
*A69
350
425
  3
*A7
350
29D
  3
*A70
350
42C
  3
*A71
350
42F
  3
*A72
350
434
  3
*A73
350
436
  3
*A74
350
43C
  3
*A75
350
446
  3
*A76
350
448
  3
*A77
350
44A
  3
*A78
350
44C
  3
*A79
350
452
  3
*A8
350
2CE
  3
*A80
350
458
  3
*A81
350
486
  3
*A82
350
488
  3
*A83
350
48A
  3
*A84
350
48C
  3
*A85
350
48E
  3
*A86
350
490
  3
*A87
350
492
  3
*A88
350
494
  3
*A89
350
496
  3
*A9
350
2D4
  3
*A90
350
498
  3
*A91
350
49A
  3
*A92
350
49C
  3
*A93
350
49E
  3
*A94
350
4A0
  3
*A95
350
4A2
  3
*A96
350
4A4
  3
*A97
350
4A6
  3
*A98
350
4A8
  3
*A99
350
4AA
  0
DICTIONARY
  5
1A
102
{ACAD_REACTORS
330
C
102
}
330
C
100
AcDbDictionary
281
     1
  3
Model
350
22
  3
ﾚｲｱｳﾄ1
350
1E
  3
ﾚｲｱｳﾄ2
350
26
  0
DICTIONARY
  5
17
102
{ACAD_REACTORS
330
C
102
}
330
C
100
AcDbDictionary
281
     1
  3
Standard
350
18
  0
DICTIONARY
  5
19
102
{ACAD_REACTORS
330
C
102
}
330
C
100
AcDbDictionary
281
     1
  0
ACDBDICTIONARYWDFLT
  5
E
102
{ACAD_REACTORS
330
C
102
}
330
C
100
AcDbDictionary
281
     1
  3
Normal
350
F
100
AcDbDictionaryWithDefault
340
F
  0
GROUP
  5
25C
102
{ACAD_REACTORS
330
D
102
}
330
D
100
AcDbGroup
300
ECAD-dio_Group
 70
     1
 71
     1
340
25D
340
25E
340
25F
  0
GROUP
  5
2E0
102
{ACAD_REACTORS
330
D
102
}
330
D
100
AcDbGroup
300
ECAD-dio_Group
 70
     1
 71
     1
340
2E1
340
2E2
  0
GROUP
  5
4AC
102
{ACAD_REACTORS
330
D
102
}
330
D
100
AcDbGroup
300
ECAD-dio_Group
 70
     1
 71
     1
340
4AD
  0
GROUP
  5
4AE
102
{ACAD_REACTORS
330
D
102
}
330
D
100
AcDbGroup
300
ECAD-dio_Group
 70
     1
 71
     1
340
4AF
  0
GROUP
  5
4B0
102
{ACAD_REACTORS
330
D
102
}
330
D
100
AcDbGroup
300
ECAD-dio_Group
 70
     1
 71
     1
340
4B1
  0
GROUP
  5
4B2
102
{ACAD_REACTORS
330
D
102
}
330
D
100
AcDbGroup
300
ECAD-dio_Group
 70
     1
 71
     1
340
4B3
  0
GROUP
  5
4B4
102
{ACAD_REACTORS
330
D
102
}
330
D
100
AcDbGroup
300
ECAD-dio_Group
 70
     1
 71
     1
340
4B5
  0
GROUP
  5
4B6
102
{ACAD_REACTORS
330
D
102
}
330
D
100
AcDbGroup
300
ECAD-dio_Group
 70
     1
 71
     1
340
4B7
  0
GROUP
  5
4B8
102
{ACAD_REACTORS
330
D
102
}
330
D
100
AcDbGroup
300
ECAD-dio_Group
 70
     1
 71
     1
340
4B9
  0
GROUP
  5
4BA
102
{ACAD_REACTORS
330
D
102
}
330
D
100
AcDbGroup
300
ECAD-dio_Group
 70
     1
 71
     1
340
4BB
  0
GROUP
  5
4BC
102
{ACAD_REACTORS
330
D
102
}
330
D
100
AcDbGroup
300
ECAD-dio_Group
 70
     1
 71
     1
340
4BD
  0
GROUP
  5
4BE
102
{ACAD_REACTORS
330
D
102
}
330
D
100
AcDbGroup
300
ECAD-dio_Group
 70
     1
 71
     1
340
4BF
  0
GROUP
  5
2E3
102
{ACAD_REACTORS
330
D
102
}
330
D
100
AcDbGroup
300
ECAD-dio_Group
 70
     1
 71
     1
340
2E4
340
2E5
  0
GROUP
  5
4C0
102
{ACAD_REACTORS
330
D
102
}
330
D
100
AcDbGroup
300
ECAD-dio_Group
 70
     1
 71
     1
340
4C1
  0
GROUP
  5
4C2
102
{ACAD_REACTORS
330
D
102
}
330
D
100
AcDbGroup
300
ECAD-dio_Group
 70
     1
 71
     1
340
4C3
  0
GROUP
  5
4C4
102
{ACAD_REACTORS
330
D
102
}
330
D
100
AcDbGroup
300
ECAD-dio_Group
 70
     1
 71
     1
340
4C5
  0
GROUP
  5
4C6
102
{ACAD_REACTORS
330
D
102
}
330
D
100
AcDbGroup
300
ECAD-dio_Group
 70
     1
 71
     1
340
4C7
  0
GROUP
  5
4C8
102
{ACAD_REACTORS
330
D
102
}
330
D
100
AcDbGroup
300
ECAD-dio_Group
 70
     1
 71
     1
340
4C9
  0
GROUP
  5
4CA
102
{ACAD_REACTORS
330
D
102
}
330
D
100
AcDbGroup
300
ECAD-dio_Group
 70
     1
 71
     1
340
4CB
  0
GROUP
  5
4CC
102
{ACAD_REACTORS
330
D
102
}
330
D
100
AcDbGroup
300
ECAD-dio_Group
 70
     1
 71
     1
340
4CD
  0
GROUP
  5
4CE
102
{ACAD_REACTORS
330
D
102
}
330
D
100
AcDbGroup
300
ECAD-dio_Group
 70
     1
 71
     1
340
4CF
  0
GROUP
  5
4D0
102
{ACAD_REACTORS
330
D
102
}
330
D
100
AcDbGroup
300
ECAD-dio_Group
 70
     1
 71
     1
340
4D1
  0
GROUP
  5
4D2
102
{ACAD_REACTORS
330
D
102
}
330
D
100
AcDbGroup
300
ECAD-dio_Group
 70
     1
 71
     1
340
4D3
  0
GROUP
  5
2E6
102
{ACAD_REACTORS
330
D
102
}
330
D
100
AcDbGroup
300
ECAD-dio_Group
 70
     1
 71
     1
340
2E7
340
2E8
  0
GROUP
  5
4D4
102
{ACAD_REACTORS
330
D
102
}
330
D
100
AcDbGroup
300
ECAD-dio_Group
 70
     1
 71
     1
340
4D5
  0
GROUP
  5
4D6
102
{ACAD_REACTORS
330
D
102
}
330
D
100
AcDbGroup
300
ECAD-dio_Group
 70
     1
 71
     1
340
4D7
  0
GROUP
  5
4D8
102
{ACAD_REACTORS
330
D
102
}
330
D
100
AcDbGroup
300
ECAD-dio_Group
 70
     1
 71
     1
340
4D9
  0
GROUP
  5
4DA
102
{ACAD_REACTORS
330
D
102
}
330
D
100
AcDbGroup
300
ECAD-dio_Group
 70
     1
 71
     1
340
4DB
  0
GROUP
  5
4DC
102
{ACAD_REACTORS
330
D
102
}
330
D
100
AcDbGroup
300
ECAD-dio_Group
 70
     1
 71
     1
340
4DD
  0
GROUP
  5
4DE
102
{ACAD_REACTORS
330
D
102
}
330
D
100
AcDbGroup
300
ECAD-dio_Group
 70
     1
 71
     1
340
4DF
  0
GROUP
  5
4E0
102
{ACAD_REACTORS
330
D
102
}
330
D
100
AcDbGroup
300
ECAD-dio_Group
 70
     1
 71
     1
340
4E1
  0
GROUP
  5
4E2
102
{ACAD_REACTORS
330
D
102
}
330
D
100
AcDbGroup
300
ECAD-dio_Group
 70
     1
 71
     1
340
4E3
  0
GROUP
  5
4E4
102
{ACAD_REACTORS
330
D
102
}
330
D
100
AcDbGroup
300
ECAD-dio_Group
 70
     1
 71
     1
340
4E5
  0
GROUP
  5
4E6
102
{ACAD_REACTORS
330
D
102
}
330
D
100
AcDbGroup
300
ECAD-dio_Group
 70
     1
 71
     1
340
4E7
  0
GROUP
  5
2E9
102
{ACAD_REACTORS
330
D
102
}
330
D
100
AcDbGroup
300
ECAD-dio_Group
 70
     1
 71
     1
340
2EA
340
2EB
340
2EC
340
2ED
340
2EE
340
2EF
340
2F0
340
2F1
340
2F2
340
2F3
340
2F4
340
2F5
340
2F6
340
2F7
340
2F8
340
2F9
340
2FA
340
2FB
  0
GROUP
  5
4E8
102
{ACAD_REACTORS
330
D
102
}
330
D
100
AcDbGroup
300
ECAD-dio_Group
 70
     1
 71
     1
340
4E9
  0
GROUP
  5
4EA
102
{ACAD_REACTORS
330
D
102
}
330
D
100
AcDbGroup
300
ECAD-dio_Group
 70
     1
 71
     1
340
4EB
  0
GROUP
  5
4EC
102
{ACAD_REACTORS
330
D
102
}
330
D
100
AcDbGroup
300
ECAD-dio_Group
 70
     1
 71
     1
340
4ED
  0
GROUP
  5
4EE
102
{ACAD_REACTORS
330
D
102
}
330
D
100
AcDbGroup
300
ECAD-dio_Group
 70
     1
 71
     1
340
4EF
  0
GROUP
  5
4F0
102
{ACAD_REACTORS
330
D
102
}
330
D
100
AcDbGroup
300
ECAD-dio_Group
 70
     1
 71
     1
340
4F1
  0
GROUP
  5
4F2
102
{ACAD_REACTORS
330
D
102
}
330
D
100
AcDbGroup
300
ECAD-dio_Group
 70
     1
 71
     1
340
4F3
  0
GROUP
  5
4F4
102
{ACAD_REACTORS
330
D
102
}
330
D
100
AcDbGroup
300
ECAD-dio_Group
 70
     1
 71
     1
340
4F5
  0
GROUP
  5
4F6
102
{ACAD_REACTORS
330
D
102
}
330
D
100
AcDbGroup
300
ECAD-dio_Group
 70
     1
 71
     1
340
4F7
  0
GROUP
  5
4F8
102
{ACAD_REACTORS
330
D
102
}
330
D
100
AcDbGroup
300
ECAD-dio_Group
 70
     1
 71
     1
340
4F9
  0
GROUP
  5
4FA
102
{ACAD_REACTORS
330
D
102
}
330
D
100
AcDbGroup
300
ECAD-dio_Group
 70
     1
 71
     1
340
4FB
  0
GROUP
  5
2FC
102
{ACAD_REACTORS
330
D
102
}
330
D
100
AcDbGroup
300
ECAD-dio_Group
 70
     1
 71
     1
340
2FD
340
2FE
  0
GROUP
  5
4FC
102
{ACAD_REACTORS
330
D
102
}
330
D
100
AcDbGroup
300
ECAD-dio_Group
 70
     1
 71
     1
340
4FD
  0
GROUP
  5
4FE
102
{ACAD_REACTORS
330
D
102
}
330
D
100
AcDbGroup
300
ECAD-dio_Group
 70
     1
 71
     1
340
4FF
  0
GROUP
  5
500
102
{ACAD_REACTORS
330
D
102
}
330
D
100
AcDbGroup
300
ECAD-dio_Group
 70
     1
 71
     1
340
501
  0
GROUP
  5
502
102
{ACAD_REACTORS
330
D
102
}
330
D
100
AcDbGroup
300
ECAD-dio_Group
 70
     1
 71
     1
340
503
  0
GROUP
  5
504
102
{ACAD_REACTORS
330
D
102
}
330
D
100
AcDbGroup
300
ECAD-dio_Group
 70
     1
 71
     1
340
505
  0
GROUP
  5
506
102
{ACAD_REACTORS
330
D
102
}
330
D
100
AcDbGroup
300
ECAD-dio_Group
 70
     1
 71
     1
340
507
  0
GROUP
  5
508
102
{ACAD_REACTORS
330
D
102
}
330
D
100
AcDbGroup
300
ECAD-dio_Group
 70
     1
 71
     1
340
509
  0
GROUP
  5
50A
102
{ACAD_REACTORS
330
D
102
}
330
D
100
AcDbGroup
300
ECAD-dio_Group
 70
     1
 71
     1
340
50B
  0
GROUP
  5
50C
102
{ACAD_REACTORS
330
D
102
}
330
D
100
AcDbGroup
300
ECAD-dio_Group
 70
     1
 71
     1
340
50D
  0
GROUP
  5
50E
102
{ACAD_REACTORS
330
D
102
}
330
D
100
AcDbGroup
300
ECAD-dio_Group
 70
     1
 71
     1
340
50F
  0
GROUP
  5
2FF
102
{ACAD_REACTORS
330
D
102
}
330
D
100
AcDbGroup
300
ECAD-dio_Group
 70
     1
 71
     1
340
300
340
301
340
302
340
303
340
304
  0
GROUP
  5
510
102
{ACAD_REACTORS
330
D
102
}
330
D
100
AcDbGroup
300
ECAD-dio_Group
 70
     1
 71
     1
340
511
  0
GROUP
  5
512
102
{ACAD_REACTORS
330
D
102
}
330
D
100
AcDbGroup
300
ECAD-dio_Group
 70
     1
 71
     1
340
513
  0
GROUP
  5
514
102
{ACAD_REACTORS
330
D
102
}
330
D
100
AcDbGroup
300
ECAD-dio_Group
 70
     1
 71
     1
340
515
  0
GROUP
  5
516
102
{ACAD_REACTORS
330
D
102
}
330
D
100
AcDbGroup
300
ECAD-dio_Group
 70
     1
 71
     1
340
517
  0
GROUP
  5
518
102
{ACAD_REACTORS
330
D
102
}
330
D
100
AcDbGroup
300
ECAD-dio_Group
 70
     1
 71
     1
340
519
  0
GROUP
  5
51A
102
{ACAD_REACTORS
330
D
102
}
330
D
100
AcDbGroup
300
ECAD-dio_Group
 70
     1
 71
     1
340
51B
  0
GROUP
  5
51C
102
{ACAD_REACTORS
330
D
102
}
330
D
100
AcDbGroup
300
ECAD-dio_Group
 70
     1
 71
     1
340
51D
  0
GROUP
  5
51E
102
{ACAD_REACTORS
330
D
102
}
330
D
100
AcDbGroup
300
ECAD-dio_Group
 70
     1
 71
     1
340
51F
  0
GROUP
  5
520
102
{ACAD_REACTORS
330
D
102
}
330
D
100
AcDbGroup
300
ECAD-dio_Group
 70
     1
 71
     1
340
521
  0
GROUP
  5
522
102
{ACAD_REACTORS
330
D
102
}
330
D
100
AcDbGroup
300
ECAD-dio_Group
 70
     1
 71
     1
340
523
  0
GROUP
  5
305
102
{ACAD_REACTORS
330
D
102
}
330
D
100
AcDbGroup
300
ECAD-dio_Group
 70
     1
 71
     1
340
306
340
307
340
308
340
309
  0
GROUP
  5
524
102
{ACAD_REACTORS
330
D
102
}
330
D
100
AcDbGroup
300
ECAD-dio_Group
 70
     1
 71
     1
340
525
  0
GROUP
  5
526
102
{ACAD_REACTORS
330
D
102
}
330
D
100
AcDbGroup
300
ECAD-dio_Group
 70
     1
 71
     1
340
527
  0
GROUP
  5
528
102
{ACAD_REACTORS
330
D
102
}
330
D
100
AcDbGroup
300
ECAD-dio_Group
 70
     1
 71
     1
340
529
  0
GROUP
  5
52A
102
{ACAD_REACTORS
330
D
102
}
330
D
100
AcDbGroup
300
ECAD-dio_Group
 70
     1
 71
     1
340
52B
  0
GROUP
  5
52C
102
{ACAD_REACTORS
330
D
102
}
330
D
100
AcDbGroup
300
ECAD-dio_Group
 70
     1
 71
     1
340
52D
  0
GROUP
  5
52E
102
{ACAD_REACTORS
330
D
102
}
330
D
100
AcDbGroup
300
ECAD-dio_Group
 70
     1
 71
     1
340
52F
  0
GROUP
  5
530
102
{ACAD_REACTORS
330
D
102
}
330
D
100
AcDbGroup
300
ECAD-dio_Group
 70
     1
 71
     1
340
531
  0
GROUP
  5
532
102
{ACAD_REACTORS
330
D
102
}
330
D
100
AcDbGroup
300
ECAD-dio_Group
 70
     1
 71
     1
340
533
  0
GROUP
  5
534
102
{ACAD_REACTORS
330
D
102
}
330
D
100
AcDbGroup
300
ECAD-dio_Group
 70
     1
 71
     1
340
535
  0
GROUP
  5
536
102
{ACAD_REACTORS
330
D
102
}
330
D
100
AcDbGroup
300
ECAD-dio_Group
 70
     1
 71
     1
340
537
  0
GROUP
  5
30A
102
{ACAD_REACTORS
330
D
102
}
330
D
100
AcDbGroup
300
ECAD-dio_Group
 70
     1
 71
     1
340
30B
340
30C
340
30D
340
30E
340
30F
  0
GROUP
  5
538
102
{ACAD_REACTORS
330
D
102
}
330
D
100
AcDbGroup
300
ECAD-dio_Group
 70
     1
 71
     1
340
539
  0
GROUP
  5
53A
102
{ACAD_REACTORS
330
D
102
}
330
D
100
AcDbGroup
300
ECAD-dio_Group
 70
     1
 71
     1
340
53B
  0
GROUP
  5
53C
102
{ACAD_REACTORS
330
D
102
}
330
D
100
AcDbGroup
300
ECAD-dio_Group
 70
     1
 71
     1
340
53D
  0
GROUP
  5
53E
102
{ACAD_REACTORS
330
D
102
}
330
D
100
AcDbGroup
300
ECAD-dio_Group
 70
     1
 71
     1
340
53F
  0
GROUP
  5
540
102
{ACAD_REACTORS
330
D
102
}
330
D
100
AcDbGroup
300
ECAD-dio_Group
 70
     1
 71
     1
340
541
  0
GROUP
  5
542
102
{ACAD_REACTORS
330
D
102
}
330
D
100
AcDbGroup
300
ECAD-dio_Group
 70
     1
 71
     1
340
543
  0
GROUP
  5
544
102
{ACAD_REACTORS
330
D
102
}
330
D
100
AcDbGroup
300
ECAD-dio_Group
 70
     1
 71
     1
340
545
  0
GROUP
  5
546
102
{ACAD_REACTORS
330
D
102
}
330
D
100
AcDbGroup
300
ECAD-dio_Group
 70
     1
 71
     1
340
547
  0
GROUP
  5
548
102
{ACAD_REACTORS
330
D
102
}
330
D
100
AcDbGroup
300
ECAD-dio_Group
 70
     1
 71
     1
340
549
  0
GROUP
  5
54A
102
{ACAD_REACTORS
330
D
102
}
330
D
100
AcDbGroup
300
ECAD-dio_Group
 70
     1
 71
     1
340
54B
  0
GROUP
  5
310
102
{ACAD_REACTORS
330
D
102
}
330
D
100
AcDbGroup
300
ECAD-dio_Group
 70
     1
 71
     1
340
311
340
312
  0
GROUP
  5
54C
102
{ACAD_REACTORS
330
D
102
}
330
D
100
AcDbGroup
300
ECAD-dio_Group
 70
     1
 71
     1
340
54D
  0
GROUP
  5
54E
102
{ACAD_REACTORS
330
D
102
}
330
D
100
AcDbGroup
300
ECAD-dio_Group
 70
     1
 71
     1
340
54F
  0
GROUP
  5
550
102
{ACAD_REACTORS
330
D
102
}
330
D
100
AcDbGroup
300
ECAD-dio_Group
 70
     1
 71
     1
340
551
  0
GROUP
  5
552
102
{ACAD_REACTORS
330
D
102
}
330
D
100
AcDbGroup
300
ECAD-dio_Group
 70
     1
 71
     1
340
553
  0
GROUP
  5
554
102
{ACAD_REACTORS
330
D
102
}
330
D
100
AcDbGroup
300
ECAD-dio_Group
 70
     1
 71
     1
340
555
  0
GROUP
  5
556
102
{ACAD_REACTORS
330
D
102
}
330
D
100
AcDbGroup
300
ECAD-dio_Group
 70
     1
 71
     1
340
557
  0
GROUP
  5
558
102
{ACAD_REACTORS
330
D
102
}
330
D
100
AcDbGroup
300
ECAD-dio_Group
 70
     1
 71
     1
340
559
  0
GROUP
  5
55A
102
{ACAD_REACTORS
330
D
102
}
330
D
100
AcDbGroup
300
ECAD-dio_Group
 70
     1
 71
     1
340
55B
  0
GROUP
  5
55C
102
{ACAD_REACTORS
330
D
102
}
330
D
100
AcDbGroup
300
ECAD-dio_Group
 70
     1
 71
     1
340
55D
  0
GROUP
  5
55E
102
{ACAD_REACTORS
330
D
102
}
330
D
100
AcDbGroup
300
ECAD-dio_Group
 70
     1
 71
     1
340
55F
  0
GROUP
  5
313
102
{ACAD_REACTORS
330
D
102
}
330
D
100
AcDbGroup
300
ECAD-dio_Group
 70
     1
 71
     1
340
314
340
315
  0
GROUP
  5
560
102
{ACAD_REACTORS
330
D
102
}
330
D
100
AcDbGroup
300
ECAD-dio_Group
 70
     1
 71
     1
340
561
  0
GROUP
  5
562
102
{ACAD_REACTORS
330
D
102
}
330
D
100
AcDbGroup
300
ECAD-dio_Group
 70
     1
 71
     1
340
563
  0
GROUP
  5
564
102
{ACAD_REACTORS
330
D
102
}
330
D
100
AcDbGroup
300
ECAD-dio_Group
 70
     1
 71
     1
340
565
  0
GROUP
  5
566
102
{ACAD_REACTORS
330
D
102
}
330
D
100
AcDbGroup
300
ECAD-dio_Group
 70
     1
 71
     1
340
567
  0
GROUP
  5
568
102
{ACAD_REACTORS
330
D
102
}
330
D
100
AcDbGroup
300
ECAD-dio_Group
 70
     1
 71
     1
340
569
  0
GROUP
  5
262
102
{ACAD_REACTORS
330
D
102
}
330
D
100
AcDbGroup
300
ECAD-dio_Group
 70
     1
 71
     1
340
263
340
264
340
265
  0
GROUP
  5
316
102
{ACAD_REACTORS
330
D
102
}
330
D
100
AcDbGroup
300
ECAD-dio_Group
 70
     1
 71
     1
340
317
340
318
  0
GROUP
  5
319
102
{ACAD_REACTORS
330
D
102
}
330
D
100
AcDbGroup
300
ECAD-dio_Group
 70
     1
 71
     1
340
31A
340
31B
340
31C
340
31D
340
31E
340
31F
340
320
340
321
  0
GROUP
  5
322
102
{ACAD_REACTORS
330
D
102
}
330
D
100
AcDbGroup
300
ECAD-dio_Group
 70
     1
 71
     1
340
323
340
324
340
325
340
326
340
327
  0
GROUP
  5
328
102
{ACAD_REACTORS
330
D
102
}
330
D
100
AcDbGroup
300
ECAD-dio_Group
 70
     1
 71
     1
340
329
340
32A
340
32B
340
32C
340
32D
  0
GROUP
  5
32E
102
{ACAD_REACTORS
330
D
102
}
330
D
100
AcDbGroup
300
ECAD-dio_Group
 70
     1
 71
     1
340
32F
340
330
340
331
340
332
340
333
  0
GROUP
  5
334
102
{ACAD_REACTORS
330
D
102
}
330
D
100
AcDbGroup
300
ECAD-dio_Group
 70
     1
 71
     1
340
335
340
336
  0
GROUP
  5
337
102
{ACAD_REACTORS
330
D
102
}
330
D
100
AcDbGroup
300
ECAD-dio_Group
 70
     1
 71
     1
340
338
  0
GROUP
  5
339
102
{ACAD_REACTORS
330
D
102
}
330
D
100
AcDbGroup
300
ECAD-dio_Group
 70
     1
 71
     1
340
33A
340
33B
340
33C
340
33D
340
33E
340
33F
340
340
340
341
340
342
340
343
340
344
340
345
340
346
340
347
340
348
340
349
340
34A
  0
GROUP
  5
34B
102
{ACAD_REACTORS
330
D
102
}
330
D
100
AcDbGroup
300
ECAD-dio_Group
 70
     1
 71
     1
340
34C
340
34D
  0
GROUP
  5
34E
102
{ACAD_REACTORS
330
D
102
}
330
D
100
AcDbGroup
300
ECAD-dio_Group
 70
     1
 71
     1
340
34F
340
350
340
351
340
352
340
353
  0
GROUP
  5
272
102
{ACAD_REACTORS
330
D
102
}
330
D
100
AcDbGroup
300
ECAD-dio_Group
 70
     1
 71
     1
340
273
340
274
340
275
  0
GROUP
  5
354
102
{ACAD_REACTORS
330
D
102
}
330
D
100
AcDbGroup
300
ECAD-dio_Group
 70
     1
 71
     1
340
355
340
356
340
357
340
358
340
359
  0
GROUP
  5
35A
102
{ACAD_REACTORS
330
D
102
}
330
D
100
AcDbGroup
300
ECAD-dio_Group
 70
     1
 71
     1
340
35B
340
35C
  0
GROUP
  5
35D
102
{ACAD_REACTORS
330
D
102
}
330
D
100
AcDbGroup
300
ECAD-dio_Group
 70
     1
 71
     1
340
35E
340
35F
340
360
340
361
340
362
  0
GROUP
  5
363
102
{ACAD_REACTORS
330
D
102
}
330
D
100
AcDbGroup
300
ECAD-dio_Group
 70
     1
 71
     1
340
364
340
365
340
366
340
367
340
368
340
369
340
36A
340
36B
340
36C
  0
GROUP
  5
36D
102
{ACAD_REACTORS
330
D
102
}
330
D
100
AcDbGroup
300
ECAD-dio_Group
 70
     1
 71
     1
340
36E
  0
GROUP
  5
36F
102
{ACAD_REACTORS
330
D
102
}
330
D
100
AcDbGroup
300
ECAD-dio_Group
 70
     1
 71
     1
340
370
340
371
340
372
340
373
340
374
340
375
340
376
340
377
  0
GROUP
  5
378
102
{ACAD_REACTORS
330
D
102
}
330
D
100
AcDbGroup
300
ECAD-dio_Group
 70
     1
 71
     1
340
379
340
37A
340
37B
340
37C
340
37D
340
37E
340
37F
340
380
  0
GROUP
  5
381
102
{ACAD_REACTORS
330
D
102
}
330
D
100
AcDbGroup
300
ECAD-dio_Group
 70
     1
 71
     1
340
382
340
383
340
384
340
385
340
386
340
387
  0
GROUP
  5
388
102
{ACAD_REACTORS
330
D
102
}
330
D
100
AcDbGroup
300
ECAD-dio_Group
 70
     1
 71
     1
340
389
  0
GROUP
  5
38A
102
{ACAD_REACTORS
330
D
102
}
330
D
100
AcDbGroup
300
ECAD-dio_Group
 70
     1
 71
     1
340
38B
340
38C
340
38D
340
38E
340
38F
  0
GROUP
  5
278
102
{ACAD_REACTORS
330
D
102
}
330
D
100
AcDbGroup
300
ECAD-dio_Group
 70
     1
 71
     1
340
279
340
27A
340
27B
  0
GROUP
  5
390
102
{ACAD_REACTORS
330
D
102
}
330
D
100
AcDbGroup
300
ECAD-dio_Group
 70
     1
 71
     1
340
391
340
392
340
393
340
394
340
395
  0
GROUP
  5
396
102
{ACAD_REACTORS
330
D
102
}
330
D
100
AcDbGroup
300
ECAD-dio_Group
 70
     1
 71
     1
340
397
  0
GROUP
  5
398
102
{ACAD_REACTORS
330
D
102
}
330
D
100
AcDbGroup
300
ECAD-dio_Group
 70
     1
 71
     1
340
399
340
39A
340
39B
340
39C
340
39D
340
39E
340
39F
340
3A0
  0
GROUP
  5
3A1
102
{ACAD_REACTORS
330
D
102
}
330
D
100
AcDbGroup
300
ECAD-dio_Group
 70
     1
 71
     1
340
3A2
340
3A3
340
3A4
340
3A5
340
3A6
340
3A7
340
3A8
340
3A9
  0
GROUP
  5
3AA
102
{ACAD_REACTORS
330
D
102
}
330
D
100
AcDbGroup
300
ECAD-dio_Group
 70
     1
 71
     1
340
3AB
  0
GROUP
  5
3AC
102
{ACAD_REACTORS
330
D
102
}
330
D
100
AcDbGroup
300
ECAD-dio_Group
 70
     1
 71
     1
340
3AD
340
3AE
340
3AF
340
3B0
340
3B1
  0
GROUP
  5
3B2
102
{ACAD_REACTORS
330
D
102
}
330
D
100
AcDbGroup
300
ECAD-dio_Group
 70
     1
 71
     1
340
3B3
340
3B4
340
3B5
340
3B6
  0
GROUP
  5
3B7
102
{ACAD_REACTORS
330
D
102
}
330
D
100
AcDbGroup
300
ECAD-dio_Group
 70
     1
 71
     1
340
3B8
340
3B9
340
3BA
340
3BB
340
3BC
  0
GROUP
  5
3BD
102
{ACAD_REACTORS
330
D
102
}
330
D
100
AcDbGroup
300
ECAD-dio_Group
 70
     1
 71
     1
340
3BE
340
3BF
340
3C0
340
3C1
340
3C2
  0
GROUP
  5
3C3
102
{ACAD_REACTORS
330
D
102
}
330
D
100
AcDbGroup
300
ECAD-dio_Group
 70
     1
 71
     1
340
3C4
  0
GROUP
  5
28B
102
{ACAD_REACTORS
330
D
102
}
330
D
100
AcDbGroup
300
ECAD-dio_Group
 70
     1
 71
     1
340
28C
340
28D
340
28E
  0
GROUP
  5
3C5
102
{ACAD_REACTORS
330
D
102
}
330
D
100
AcDbGroup
300
ECAD-dio_Group
 70
     1
 71
     1
340
3C6
340
3C7
340
3C8
340
3C9
  0
GROUP
  5
3CA
102
{ACAD_REACTORS
330
D
102
}
330
D
100
AcDbGroup
300
ECAD-dio_Group
 70
     1
 71
     1
340
3CB
340
3CC
340
3CD
340
3CE
  0
GROUP
  5
3CF
102
{ACAD_REACTORS
330
D
102
}
330
D
100
AcDbGroup
300
ECAD-dio_Group
 70
     1
 71
     1
340
3D0
340
3D1
340
3D2
340
3D3
340
3D4
340
3D5
  0
GROUP
  5
3D6
102
{ACAD_REACTORS
330
D
102
}
330
D
100
AcDbGroup
300
ECAD-dio_Group
 70
     1
 71
     1
340
3D7
340
3D8
340
3D9
340
3DA
340
3DB
  0
GROUP
  5
3DC
102
{ACAD_REACTORS
330
D
102
}
330
D
100
AcDbGroup
300
ECAD-dio_Group
 70
     1
 71
     1
340
3DD
340
3DE
  0
GROUP
  5
3DF
102
{ACAD_REACTORS
330
D
102
}
330
D
100
AcDbGroup
300
ECAD-dio_Group
 70
     1
 71
     1
340
3E0
340
3E1
340
3E2
340
3E3
340
3E4
340
3E5
  0
GROUP
  5
3E6
102
{ACAD_REACTORS
330
D
102
}
330
D
100
AcDbGroup
300
ECAD-dio_Group
 70
     1
 71
     1
340
3E7
340
3E8
  0
GROUP
  5
3E9
102
{ACAD_REACTORS
330
D
102
}
330
D
100
AcDbGroup
300
ECAD-dio_Group
 70
     1
 71
     1
340
3EA
  0
GROUP
  5
3EB
102
{ACAD_REACTORS
330
D
102
}
330
D
100
AcDbGroup
300
ECAD-dio_Group
 70
     1
 71
     1
340
3EC
340
3ED
340
3EE
340
3EF
340
3F0
  0
GROUP
  5
3F1
102
{ACAD_REACTORS
330
D
102
}
330
D
100
AcDbGroup
300
ECAD-dio_Group
 70
     1
 71
     1
340
3F2
340
3F3
340
3F4
340
3F5
  0
GROUP
  5
295
102
{ACAD_REACTORS
330
D
102
}
330
D
100
AcDbGroup
300
ECAD-dio_Group
 70
     1
 71
     1
340
296
340
297
340
298
  0
GROUP
  5
3F6
102
{ACAD_REACTORS
330
D
102
}
330
D
100
AcDbGroup
300
ECAD-dio_Group
 70
     1
 71
     1
340
3F7
340
3F8
340
3F9
340
3FA
340
3FB
340
3FC
  0
GROUP
  5
3FD
102
{ACAD_REACTORS
330
D
102
}
330
D
100
AcDbGroup
300
ECAD-dio_Group
 70
     1
 71
     1
340
3FE
340
3FF
340
400
340
401
  0
GROUP
  5
402
102
{ACAD_REACTORS
330
D
102
}
330
D
100
AcDbGroup
300
ECAD-dio_Group
 70
     1
 71
     1
340
403
340
404
340
405
340
406
340
407
  0
GROUP
  5
408
102
{ACAD_REACTORS
330
D
102
}
330
D
100
AcDbGroup
300
ECAD-dio_Group
 70
     1
 71
     1
340
409
340
40A
340
40B
340
40C
340
40D
  0
GROUP
  5
40E
102
{ACAD_REACTORS
330
D
102
}
330
D
100
AcDbGroup
300
ECAD-dio_Group
 70
     1
 71
     1
340
40F
  0
GROUP
  5
410
102
{ACAD_REACTORS
330
D
102
}
330
D
100
AcDbGroup
300
ECAD-dio_Group
 70
     1
 71
     1
340
411
340
412
340
413
340
414
  0
GROUP
  5
415
102
{ACAD_REACTORS
330
D
102
}
330
D
100
AcDbGroup
300
ECAD-dio_Group
 70
     1
 71
     1
340
416
340
417
340
418
340
419
340
41A
340
41B
  0
GROUP
  5
41C
102
{ACAD_REACTORS
330
D
102
}
330
D
100
AcDbGroup
300
ECAD-dio_Group
 70
     1
 71
     1
340
41D
340
41E
340
41F
340
420
340
421
  0
GROUP
  5
422
102
{ACAD_REACTORS
330
D
102
}
330
D
100
AcDbGroup
300
ECAD-dio_Group
 70
     1
 71
     1
340
423
340
424
  0
GROUP
  5
425
102
{ACAD_REACTORS
330
D
102
}
330
D
100
AcDbGroup
300
ECAD-dio_Group
 70
     1
 71
     1
340
426
340
427
340
428
340
429
340
42A
340
42B
  0
GROUP
  5
29D
102
{ACAD_REACTORS
330
D
102
}
330
D
100
AcDbGroup
300
ECAD-dio_Group
 70
     1
 71
     1
340
29E
340
29F
340
2A0
  0
GROUP
  5
42C
102
{ACAD_REACTORS
330
D
102
}
330
D
100
AcDbGroup
300
ECAD-dio_Group
 70
     1
 71
     1
340
42D
340
42E
  0
GROUP
  5
42F
102
{ACAD_REACTORS
330
D
102
}
330
D
100
AcDbGroup
300
ECAD-dio_Group
 70
     1
 71
     1
340
430
340
431
340
432
340
433
  0
GROUP
  5
434
102
{ACAD_REACTORS
330
D
102
}
330
D
100
AcDbGroup
300
ECAD-dio_Group
 70
     1
 71
     1
340
435
  0
GROUP
  5
436
102
{ACAD_REACTORS
330
D
102
}
330
D
100
AcDbGroup
300
ECAD-dio_Group
 70
     1
 71
     1
340
437
340
438
340
439
340
43A
340
43B
  0
GROUP
  5
43C
102
{ACAD_REACTORS
330
D
102
}
330
D
100
AcDbGroup
300
ECAD-dio_Group
 70
     1
 71
     1
340
43D
340
43E
340
43F
340
440
340
441
340
442
340
443
340
444
340
445
  0
GROUP
  5
446
102
{ACAD_REACTORS
330
D
102
}
330
D
100
AcDbGroup
300
ECAD-dio_Group
 70
     1
 71
     1
340
447
  0
GROUP
  5
448
102
{ACAD_REACTORS
330
D
102
}
330
D
100
AcDbGroup
300
ECAD-dio_Group
 70
     1
 71
     1
340
449
  0
GROUP
  5
44A
102
{ACAD_REACTORS
330
D
102
}
330
D
100
AcDbGroup
300
ECAD-dio_Group
 70
     1
 71
     1
340
44B
  0
GROUP
  5
44C
102
{ACAD_REACTORS
330
D
102
}
330
D
100
AcDbGroup
300
ECAD-dio_Group
 70
     1
 71
     1
340
44D
340
44E
340
44F
340
450
340
451
  0
GROUP
  5
452
102
{ACAD_REACTORS
330
D
102
}
330
D
100
AcDbGroup
300
ECAD-dio_Group
 70
     1
 71
     1
340
453
340
454
340
455
340
456
340
457
  0
GROUP
  5
2CE
102
{ACAD_REACTORS
330
D
102
}
330
D
100
AcDbGroup
300
ECAD-dio_Group
 70
     1
 71
     1
340
2CF
340
2D0
340
2D1
  0
GROUP
  5
458
102
{ACAD_REACTORS
330
D
102
}
330
D
100
AcDbGroup
300
ECAD-dio_Group
 70
     1
 71
     1
340
459
340
45A
340
45B
340
45C
340
45D
  0
GROUP
  5
486
102
{ACAD_REACTORS
330
D
102
}
330
D
100
AcDbGroup
300
ECAD-dio_Group
 70
     1
 71
     1
340
487
  0
GROUP
  5
488
102
{ACAD_REACTORS
330
D
102
}
330
D
100
AcDbGroup
300
ECAD-dio_Group
 70
     1
 71
     1
340
489
  0
GROUP
  5
48A
102
{ACAD_REACTORS
330
D
102
}
330
D
100
AcDbGroup
300
ECAD-dio_Group
 70
     1
 71
     1
340
48B
  0
GROUP
  5
48C
102
{ACAD_REACTORS
330
D
102
}
330
D
100
AcDbGroup
300
ECAD-dio_Group
 70
     1
 71
     1
340
48D
  0
GROUP
  5
48E
102
{ACAD_REACTORS
330
D
102
}
330
D
100
AcDbGroup
300
ECAD-dio_Group
 70
     1
 71
     1
340
48F
  0
GROUP
  5
490
102
{ACAD_REACTORS
330
D
102
}
330
D
100
AcDbGroup
300
ECAD-dio_Group
 70
     1
 71
     1
340
491
  0
GROUP
  5
492
102
{ACAD_REACTORS
330
D
102
}
330
D
100
AcDbGroup
300
ECAD-dio_Group
 70
     1
 71
     1
340
493
  0
GROUP
  5
494
102
{ACAD_REACTORS
330
D
102
}
330
D
100
AcDbGroup
300
ECAD-dio_Group
 70
     1
 71
     1
340
495
  0
GROUP
  5
496
102
{ACAD_REACTORS
330
D
102
}
330
D
100
AcDbGroup
300
ECAD-dio_Group
 70
     1
 71
     1
340
497
  0
GROUP
  5
2D4
102
{ACAD_REACTORS
330
D
102
}
330
D
100
AcDbGroup
300
ECAD-dio_Group
 70
     1
 71
     1
340
2D5
340
2D6
340
2D7
  0
GROUP
  5
498
102
{ACAD_REACTORS
330
D
102
}
330
D
100
AcDbGroup
300
ECAD-dio_Group
 70
     1
 71
     1
340
499
  0
GROUP
  5
49A
102
{ACAD_REACTORS
330
D
102
}
330
D
100
AcDbGroup
300
ECAD-dio_Group
 70
     1
 71
     1
340
49B
  0
GROUP
  5
49C
102
{ACAD_REACTORS
330
D
102
}
330
D
100
AcDbGroup
300
ECAD-dio_Group
 70
     1
 71
     1
340
49D
  0
GROUP
  5
49E
102
{ACAD_REACTORS
330
D
102
}
330
D
100
AcDbGroup
300
ECAD-dio_Group
 70
     1
 71
     1
340
49F
  0
GROUP
  5
4A0
102
{ACAD_REACTORS
330
D
102
}
330
D
100
AcDbGroup
300
ECAD-dio_Group
 70
     1
 71
     1
340
4A1
  0
GROUP
  5
4A2
102
{ACAD_REACTORS
330
D
102
}
330
D
100
AcDbGroup
300
ECAD-dio_Group
 70
     1
 71
     1
340
4A3
  0
GROUP
  5
4A4
102
{ACAD_REACTORS
330
D
102
}
330
D
100
AcDbGroup
300
ECAD-dio_Group
 70
     1
 71
     1
340
4A5
  0
GROUP
  5
4A6
102
{ACAD_REACTORS
330
D
102
}
330
D
100
AcDbGroup
300
ECAD-dio_Group
 70
     1
 71
     1
340
4A7
  0
GROUP
  5
4A8
102
{ACAD_REACTORS
330
D
102
}
330
D
100
AcDbGroup
300
ECAD-dio_Group
 70
     1
 71
     1
340
4A9
  0
GROUP
  5
4AA
102
{ACAD_REACTORS
330
D
102
}
330
D
100
AcDbGroup
300
ECAD-dio_Group
 70
     1
 71
     1
340
4AB
  0
LAYOUT
  5
22
102
{ACAD_REACTORS
330
1A
102
}
330
1A
100
AcDbPlotSettings
  1

  2
DWF ePlot.pc3
  4
ANSI_A_(8.50_x_11.00_Inches)
  6

 40
5.793749809265137
 41
17.79375076293945
 42
5.793746948242188
 43
17.79376220703125
 44
215.8999938964844
 45
279.3999938964844
 46
0.0
 47
0.0
 48
0.0
 49
0.0
140
0.0
141
0.0
142
1.0
143
39.26051453979704
 70
 11952
 72
     0
 73
     1
 74
     0
  7
acad.ctb
 75
     0
147
0.0254708837039396
148
-1793.922354682663
149
1.490346453088415
100
AcDbLayout
  1
Model
 70
     1
 71
     0
 10
-210.0
 20
-148.5
 11
210.0
 21
148.5
 12
0.0
 22
0.0
 32
0.0
 14
-210.0
 24
-148.5
 34
0.0
 15
210.0
 25
148.5
 35
0.0
146
0.0
 13
0.0
 23
0.0
 33
0.0
 16
1.0
 26
0.0
 36
0.0
 17
0.0
 27
1.0
 37
0.0
 76
     0
330
1F
  0
LAYOUT
  5
1E
102
{ACAD_REACTORS
330
1A
102
}
330
1A
100
AcDbPlotSettings
  1

  2
RICOH IPSiO NX700
  4

  6

 40
0.0
 41
0.0
 42
0.0
 43
0.0
 44
0.0
 45
0.0
 46
0.0
 47
0.0
 48
0.0
 49
0.0
140
0.0
141
0.0
142
1.0
143
1.0
 70
   688
 72
     0
 73
     0
 74
     5
  7
acad.ctb
 75
    16
147
1.0
148
0.0
149
0.0
100
AcDbLayout
  1
ﾚｲｱｳﾄ1
 70
     1
 71
     1
 10
-210.0
 20
-148.5
 11
210.0
 21
148.5
 12
0.0
 22
0.0
 32
0.0
 14
-210.0
 24
-148.5
 34
0.0
 15
210.0
 25
148.5
 35
0.0
146
0.0
 13
0.0
 23
0.0
 33
0.0
 16
1.0
 26
0.0
 36
0.0
 17
0.0
 27
1.0
 37
0.0
 76
     0
330
1B
  0
LAYOUT
  5
26
102
{ACAD_REACTORS
330
1A
102
}
330
1A
100
AcDbPlotSettings
  1

  2
RICOH IPSiO NX700
  4

  6

 40
0.0
 41
0.0
 42
0.0
 43
0.0
 44
0.0
 45
0.0
 46
0.0
 47
0.0
 48
0.0
 49
0.0
140
0.0
141
0.0
142
1.0
143
1.0
 70
   688
 72
     0
 73
     0
 74
     5
  7
acad.ctb
 75
    16
147
1.0
148
0.0
149
0.0
100
AcDbLayout
  1
ﾚｲｱｳﾄ2
 70
     1
 71
     2
 10
0.0
 20
0.0
 11
12.0
 21
9.0
 12
0.0
 22
0.0
 32
0.0
 14
0.0
 24
0.0
 34
0.0
 15
0.0
 25
0.0
 35
0.0
146
0.0
 13
0.0
 23
0.0
 33
0.0
 16
1.0
 26
0.0
 36
0.0
 17
0.0
 27
1.0
 37
0.0
 76
     0
330
23
  0
MLINESTYLE
  5
18
102
{ACAD_REACTORS
330
17
102
}
330
17
100
AcDbMlineStyle
  2
STANDARD
 70
     0
  3

 62
   256
 51
90.0
 52
90.0
 71
     2
 49
0.5
 62
   256
  6
BYLAYER
 49
-0.5
 62
   256
  6
BYLAYER
  0
ACDBPLACEHOLDER
  5
F
102
{ACAD_REACTORS
330
E
102
}
330
E
  0
ENDSEC
  0
EOF
